Song name
# A B C D E F G H I J K L M N O P Q R S T U V W X Y Z

Misfits - Tv Casualty tab

-------------------------------------------------------------------------------
			   Tv Casulaty - Misfits
-------------------------------------------------------------------------------
Tabbed by: Astrozombie138

Tuning: standard

(main riff) 
e|------------| 
B|------------|
G|------------|
D|------------|
A|--6-6-6-6---|
E|--4-4-4-4---|

(bassline)
G|------------|
D|------------|
A|------7-6---|
E|--4-4-------|

(chorus)
e|---------------------------------------------------------------------------|
B|---------------------------------------------------------------------------|
G|---------------------------------------------------------------------------|
D|---------------------------------------------------------------------------|
A|--9--9--8-8-8--9--9--8-8-8--5/6-6-5/6-6-5/6-6------------------------------|
E|--7--7--6-6-6--7--7--6-6-6--3/4-4-3/4-4-3/4-4------------------------------|

order:
main riff     24x
chorus        2x
main riff     32x
chorus        2x
main riff     32x
chorus        4x
 


| /  slide up
| \  slide down
| h  hammer-on
| p  pull-off
| ~  vibrato
| +  harmonic
| x  Mute note
===============================================================================
Tap to rate this tab
# A B C D E F G H I J K L M N O P Q R S T U V W X Y Z