Song name
# A B C D E F G H I J K L M N O P Q R S T U V W X Y Z

Misfits - Die Monster Die tab

-------------------------------------------------------------------------------
                            DIE MONSTER DIE - Misfits
-------------------------------------------------------------------------------


Tune down 1/2 step:

|---------------------------------------------------------------------|
|---------------------------------------------------------------------|
|-------6-6-6--------7-7-7--------------------------------------------|
|-7--7--6-6-6--4--4--7-7-7--7--7-\-2-2-2-2-2-2-2-2-2-2-2-2-2-2-2-2--\-|
|-7--7--4-4-4--4--4--5-5-5--7--7-\-2-2-2-2-2-2-2-2-2-2-2-2-2-2-2-2--\-|
|-5--5---------2--2---------5--5-\-0-0-0-0-0-0-0-0-0-0-0-0-0-0-0-0--\-|
                                   pm-----------------------------

|------------------------------------------------------------------|
|-----------------------------play-2-times-------------------------|
|-------6-6-6--------7-7-7-----------------------------------------|
|-7--7--6-6-6--4--4--7-7-7--7--7-\-2-2-2-2-2-2-2-2-2-2-2-2-2-2-2-2-|
|-7--7--4-4-4--4--4--5-5-5--7--7-\-2-2-2-2-2-2-2-2-2-2-2-2-2-2-2-2-|
|-5--5---------2--2---------5--5-\-0-0-0-0-0-0-0-0-0-0-0-0-0-0-0-0-|
                                   pm-----------------------------

|---------------------------------|-----------------------------------------------|
|-----------play-3-times----------|-----------------------------------------------|
|-------------------------7-7-7-7-|-----------------------------------------------|
|-7-7-7-7-7-7-7-7-9-9-9-9-7-7-7-7-|-7-7-7-7-7-7-7-7-2-2-2-2-2-2-2-2-2-2-2-2-2-2-2-|
|-7-7-7-7-7-7-7-7-9-9-9-9-5-5-5-5-|-7-7-7-7-7-7-7-7-2-2-2-2-2-2-2-2-2-2-2-2-2-2-2-|
|-5-5-5-5-5-5-5-5-7-7-7-7---------|-5-5-5-5-5-5-5-5-0-0-0-0-0-0-0-0-0-0-0-0-0-0-0-|
                                                    pm---------------------------

|------------------------------------------------------------------|
|-----------------------------play-2-times-------------------------|
|-------6-6-6--------7-7-7-----------------------------------------|
|-7--7--6-6-6--4--4--7-7-7--7--7-\-2-2-2-2-2-2-2-2-2-2-2-2-2-2-2-2-|
|-7--7--4-4-4--4--4--5-5-5--7--7-\-2-2-2-2-2-2-2-2-2-2-2-2-2-2-2-2-|
|-5--5---------2--2---------5--5-\-0-0-0-0-0-0-0-0-0-0-0-0-0-0-0-0-|
                                   pm-----------------------------

|---------------------------------|-----------------------------------------------|
|-----------play-3-times----------|-----------------------------------------------|
|-------------------------7-7-7-7-|-----------------------------------------------|
|-7-7-7-7-7-7-7-7-9-9-9-9-7-7-7-7-|-7-7-7-7-7-7-7-7-2-2-2-2-2-2-2-2-2-2-2-2-2-2-2-|
|-7-7-7-7-7-7-7-7-9-9-9-9-5-5-5-5-|-7-7-7-7-7-7-7-7-2-2-2-2-2-2-2-2-2-2-2-2-2-2-2-|
|-5-5-5-5-5-5-5-5-7-7-7-7---------|-5-5-5-5-5-5-5-5-0-0-0-0-0-0-0-0-0-0-0-0-0-0-0-|
                                                    pm---------------------------

|-------------------------------|------------------------|
|-----------play-3-times--------|------------------------|
|-------------------------7---7-|------------------------|
|-7--7-7-7-7-7-7-7-7-7-7--7---7-|-7--7-7-7-7-7-2-2-2-2-2-|
|-7--7-7-7-7-7-7-7-7-7-7--5---5-|-7--7-7-7-7-7-2-2-2-2-2-|
|-5--5-5-5-5-5-5-5-5-5-5--------|-5--5-5-5-5-5-0-0-0-0-0-|
     pm-----------------             pm------------------

|------------------------------------------------------------------|
|-----------------------------play-2-times-------------------------|
|-------6-6-6--------7-7-7-----------------------------------------|
|-7--7--6-6-6--4--4--7-7-7--7--7-\-2-2-2-2-2-2-2-2-2-2-2-2-2-2-2-2-|
|-7--7--4-4-4--4--4--5-5-5--7--7-\-2-2-2-2-2-2-2-2-2-2-2-2-2-2-2-2-|
|-5--5---------2--2---------5--5-\-0-0-0-0-0-0-0-0-0-0-0-0-0-0-0-0-|
                                   pm-----------------------------

|---------------------------------|-----------------------------------------------|
|-----------play-3-times----------|-----------------------------------------------|
|-------------------------7-7-7-7-|-----------------------------------------------|
|-7-7-7-7-7-7-7-7-9-9-9-9-7-7-7-7-|-7-7-7-7-7-7-7-7-2-2-2-2-2-2-2-2-2-2-2-2-2-2-2-|
|-7-7-7-7-7-7-7-7-9-9-9-9-5-5-5-5-|-7-7-7-7-7-7-7-7-2-2-2-2-2-2-2-2-2-2-2-2-2-2-2-|
|-5-5-5-5-5-5-5-5-7-7-7-7---------|-5-5-5-5-5-5-5-5-0-0-0-0-0-0-0-0-0-0-0-0-0-0-0-|

|---------------------------------|-----------------------------------------------|
|-----------play-3-times----------|-----------------------------------------------|
|-------------------------7-7-7-7-|-----------------------------------------------|
|-7-7-7-7-7-7-7-7-9-9-9-9-7-7-7-7-|-7-7-7-7-7-7-7-7-2-2-2-2-2-2-2-2-2-2-2-2-2-2-2-|
|-7-7-7-7-7-7-7-7-9-9-9-9-5-5-5-5-|-7-7-7-7-7-7-7-7-2-2-2-2-2-2-2-2-2-2-2-2-2-2-2-|
|-5-5-5-5-5-5-5-5-7-7-7-7---------|-5-5-5-5-5-5-5-5-0-0-0-0-0-0-0-0-0-0-0-0-0-0-0-|

|----------|
|----------|
|----------|
|-7------7-|
|-7------7-|
|-5------5-|

=============================================================================
Tap to rate this tab
 
# A B C D E F G H I J K L M N O P Q R S T U V W X Y Z