Song name
# A B C D E F G H I J K L M N O P Q R S T U V W X Y Z

Misfits - Fiend Club tab

-------------------------------------------------------------------------------
			     Fiend Club - Misfits
-------------------------------------------------------------------------------
Tabbed by: Astrozombie138

Tuning: 1/2 step down

(riff 1)
eb|-----|--------------------------------------------------------------------|
Bb|-----|--------------------------------------------------------------------|
Gb|-----|--------------------------------------------------------------------|
Db|-----|--------------------------------------------------------------------|
Ab|-----|--6-------------2-------------4-------------------------------------|
Eb|--2--|--4--7-4-7-4-7--0--0-0-0-0-0--2-------------------------------------|

(riff 2)
eb|--------------------------------------------------------------------------|
Bb|--------------------------------------------------------------------------|
Gb|--------------------------------------------------------------------------|
Db|--------------------------------------------------------------------------|
Ab|--------------------------------------------------------------------------|
Eb|--4--7-4-7-4-7--0--0-0-0-0-0--2-------------------------------------------|
(PM)    . . . . .     . . . . .

(riff 3)
eb|-----------------|
Bb|-----------------|
Gb|-----------------|
Db|-----------------|
Ab|--6:-------2:----|
Eb|--4:-------0:----|

(riff 4)
eb|---------------------------------------|
Bb|---------------------------------------|
Gb|---------------------------------------|
Db|-------8-8--9-9--11-11-----------------|
Ab|--9-9--6-6--7-7--9--9------------------|
Eb|--7-7----------------------------------|

(riff 5)
eb|-------------|
Bb|-------------|
Gb|-------------|
Db|--------6:---|
Ab|----2:--4:---|
Eb|----0:-------|

(riff 6)(not 100% sure on this part)
eb|-------------------------------------------------------------------------|
Bb|-------------------------------------------------------------------------|
Gb|-------------------------------------------------------------------------|
Db|-------------------------------------------------------------------------|
Ab|-------6-------------2--2-2-2-2-2--4-------------------------------------|
Eb|-------4--7-4-7-4-7--0--0-0-0-0-0--2-------------------------------------|
(PM)                        . . . . .


order:
riff 1        4x
riff 2        4x
riff 3        2x(play an E chord after this)
riff 4        3x
riff 5        1x
riff 1        2x
riff 2        4x
riff 3        2x
riff 4        3x
riff 5        1x
riff 6        4x(play an E chord after)
riff 4        3x
riff 5        1x
riff 4        3x
riff 5        2x
end on a B chord with feedback



| /  slide up
| \  slide down
| h  hammer-on
| p  pull-off
| ~  vibrato
| +  harmonic
| x  Mute note
===============================================================================
Tap to rate this tab
# A B C D E F G H I J K L M N O P Q R S T U V W X Y Z