Guitaretab - guitar tabs
Song name
# A B C D E F G H I J K L M N O P Q R S T U V W X Y Z

Misfits - 1000000 Years Bc tab

-------------------------------------------------------------------------------
		        1000000 Years BC - The Misfits
-------------------------------------------------------------------------------
Tabbed by: Tam
Email: tam_sanh@hotmail.com

I'm writing this tab because the other tabs are incorrect.

They're all in the wrong key, and were tabbed out using guitars with
distortion.

You might think: "But the song has distortion, why not tab out in
distortion?"

That's because, I dunno, IT'S DISTORTED. So your tab is WRONG.

The proper way to tab anything is with an Acoustic or Clean electric;
that way, you can pick out what parts sound right, and what parts sound
like crap.

If you thought the Tab was good, please rate it, so that others will look at this one, 
not the incorrect ones.

Anyway, enough rambling. Onto the Tab:

Tuning: EADGBe

The lovely part about Misfit songs is that they are simple, and repeat
the same chord progressions over and over. I will tab out these chord
progressions, but since it repeats throughout the whole song, I'll do it
once.

Intro:
e|----------------||
B|----------------||
G|-6-6-6-6--------||
D|-6-6-6-6-6-6-6-6||
A|-4-4-4-4-6-6-6-6||x4
E|---------4-4-4-4||
[ Tab from: http://www.guitaretab.com/m/misfits/48103.html ]
Verse:
e|-----------------------------------------------------------------||
B|-----------------------------------------------------------------||
G|-6-6-6-6-6-6-6-6-------------------------------------------------||
D|-6-6-6-6-6-6-6-6-6-6-6-6-6-6-6-6-8-8-8-8-8-8-8-8-4-4-4-4-6-6-6-6-||
A|-4-4-4-4-4-4-4-4-6-6-6-6-6-6-6-6-8-8-8-8-8-8-8-8-4-4-4-4-6-6-6-6-||x2
E|-----------------4-4-4-4-4-4-4-4-6-6-6-6-6-6-6-6-2-2-2-2-4-4-4-4-||
They're calling me, creatures of the night...

Pre-Chorus:
e|---------------------------------||
B|---------------------------------||
G|-6-6-6-6-6-6-6-6-----------------||
D|-6-6-6-6-6-6-6-6-8-8-8-8-8-8-8-8-||
A|-4-4-4-4-4-4-4-4-8-8-8-8-8-8-8-8-||x2
E|-----------------6-6-6-6-6-6-6-6-||
Ooooooooooohhh, I've seen it all...

e|---------------------------------||
B|---------------------------------||
G|-4-4-4-4-4-4-4-4-----------------||
D|-4-4-4-4-4-4-4-4-6-6-6-6-6-6-6-6-||
A|-2-2-2-2-2-2-2-2-6-6-6-6-6-6-6-6-||x2
E|-----------------4-4-4-4-4-4-4-4-||
Babylon...

Chorus:
e|-----------------------------------------------------------------||
B|-----------------------------------------------------------------||
G|-6-6-6-6-6-6-6-6-------------------------------------------------||
D|-6-6-6-6-6-6-6-6-8-8-8-8-8-8-8-8-4-4-4-4-4-4-4-4-6-6-6-6-6-6-6-6-||
A|-4-4-4-4-4-4-4-4-8-8-8-8-8-8-8-8-4-4-4-4-4-4-4-4-6-6-6-6-6-6-6-6-||
E|-----------------6-6-6-6-6-6-6-6-2-2-2-2-2-2-2-2-4-4-4-4-4-4-4-4-||
One million years BC...

Then that all repeats,in that order, until the ending, where the chorus repeats a few 
and ends differently.

Ending:
e|-----------------------------------------------------------||
B|-----------------------------------------------------------||
G|-6-6-6-6-6-6-6-6---------------------------------6-6-6-6-6-||
D|-6-6-6-6-6-6-6-6-8-8-8-8-8-8-8-8-4-4-4-4-6-6-6-6-6-6-6-6-6-||
A|-4-4-4-4-4-4-4-4-8-8-8-8-8-8-8-8-4-4-4-4-6-6-6-6-4-4-4-4-4-||
E|-----------------6-6-6-6-6-6-6-6-2-2-2-2-4-4-4-2-----------||
Whoahhhhhhhhh....


And there you have it. The only correct tab for this song.

Please rate high so that others may look.
Related for 1000000 Years Bc tab
Advertisement will be closed in 10 seconds