Song name
# A B C D E F G H I J K L M N O P Q R S T U V W X Y Z

Misfits - Dust To Dust tab

Help us improve GuitareTab! Take a short survey!
-------------------------------------------------------------------------------
                          DUST TO DUST - Misfits
-------------------------------------------------------------------------------
Tune down 1/2 step:

Drums...

|----------------------------|----------------------------|
|--------play-4-times--------|--------play-4-times--------|
|-4--------------------------|-4--------------------------|
|-4-----2-----5--------------|-4-----2-----5--------------|
|-2-----2-----5--------7-5-7-|-2-----2-----5--------7-5-7-|
|-------0-----3--------5-3-5-|-------0-----3--------5-3-5-|
                                                    pm---
|----------------------------|---------------|
|--------play-3-times--------|---------------|
|-4--------------------------|-4-------------|
|-4-----2-----5--------------|-4-----2-----5-|
|-2-----2-----5--------7-5-7-|-2-----2-----5-|
|-------0-----3--------5-3-5-|-------0-----3-|

|----------------------|
|-----play-4-times-----|
|-7--------------------|
|-7-----------5------2-|
|-5-----------5------2-|
|-------------3------0-|

|----------------------------|-------------------------------|
|--------play-4-times--------|----------play-4-times---------|
|-4--------------------------|-4-4-4-------------------------|
|-4-----2-----5--------------|-4-4-4-2-2-2-5-5-5-5-5-5-------|
|-2-----2-----5--------7-5-7-|-2-2-2-2-2-2-5-5-5-5-5-5-7-5-7-|
|-------0-----3--------5-3-5-|-------0-0-0-3-3-3-3-3-3-5-3-5-|
                               pm---------------------------

|----------------------------|---------------|
|--------play-3-times--------|---------------|
|-4--------------------------|-4-------------|
|-4-----2-----5--------------|-4-----2-----5-|
|-2-----2-----5--------7-5-7-|-2-----2-----5-|
|-------0-----3--------5-3-5-|-------0-----3-|

|----------------------|
|-----play-4-times-----|
|-7--------------------|
|-7-----------5------2-|
|-5-----------5------2-|
|-------------3------0-|

|----------------------------|---------------|
|--------play-3-times--------|---------------|
|-4--------------------------|-4-------------|
|-4-----2-----5--------------|-4-----2-----5-|
|-2-----2-----5--------7-5-7-|-2-----2-----5-|
|-------0-----3--------5-3-5-|-------0-----3-|

|------------------------|
|-------(feedback)-------|
|------------------------|
|-4------5------6------7-|
|-2------3------4------5-|
|------------------------|

|----------------------|
|-----play-4-times-----|
|-7--------------------|
|-7-----------5------2-|
|-5-----------5------2-|
|-------------3------0-|

|----------------------------|---------------|
|--------play-3-times--------|---------------|
|-4--------------------------|-4-------------|
|-4-----2-----5--------------|-4-----2-----5-|
|-2-----2-----5--------7-5-7-|-2-----2-----5-|
|-------0-----3--------5-3-5-|-------0-----3-|
Related for Dust To Dust tab