Song name
# A B C D E F G H I J K L M N O P Q R S T U V W X Y Z

Misfits - Mars Attacks tab

-------------------------------------------------------------------------------
			     Mars Attacks - Misfits
-------------------------------------------------------------------------------
Tabbed by: Astrozombie138

Tuning: 1/2 step down

(intro)
eb|---------------------------------------------------------------------------|
Bb|---------------------------------------------------------------------------|
Gb|---------------------------------------------------------------------------|
Db|---------------------------------------------------------------------------|
Ab|--7-7-7-7-7-7-7-7-7-7-7-7-7-7-7-7-7-7-7-7----------------------------------|
Eb|--5-5-5-5-5-5-5-5-5-5-5-5-5-5-5-5-5-5-5-5----------------------------------|
(PM). . . . . . . . . . . . . . .

(verse)
eb|---------------------------------------------------------------------------|
Bb|---------------------------------------------------------------------------|
Gb|---------------------------------------------------------------------------|
Db|-------------------------5-5-5-5-5-5-5-5-5-5-5-5---------------------------|
Ab|--7-7-7-7-7-7-7-7-7-7-7--3-3-3-3-3-3-3-3-3-3-3-3-\-5-5-5-5-5-5-5-5-5-5-5---|
Eb|--5-5-5-5-5-5-5-5-5-5-5--------------------------\-3-3-3-3-3-3-3-3-3-3-3---|
(PM) . . . . . . . . . . .    . . . . . . . . . . .     . . . . . . . . . .

eb|---------------------------------------------------------------------------|
Bb|---------------------------------------------------------------------------|
Gb|---------------------------------------------------------------------------|
Db|--------------------------------------------------5-5-5-5-5-5-5-5-5-5-5----|
Ab|--7-7-7-7-7-7-7-7-7-7-7--7-7-7-7-7-7-7-7-7-7-7-7--3-3-3-3-3-3-3-3-3-3-3----|
Eb|--5-5-5-5-5-5-5-5-5-5-5--5-5-5-5-5-5-5-5-5-5-5-5---------------------------|
(PM)   . . . . . . . . . .    . . . . . . . . . . .    . . . . . . . . . .

eb|--------------------------------------------------------------------------|
Bb|--------------------------------------------------------------------------|
Gb|--------------------------------------------------------------------------|
Db|------------------------------7:--7-7-7-7-7-7-7-7-------------------------|
Ab|--\--5-5-5-5-5-5-5-5-5-5-5-5--5:--5-5-5-5-5-5-5-5-------------------------|
Eb|--\--3-3-3-3-3-3-3-3-3-3-3-3----------------------------------------------|
(PM)      . . . . . . . . . . .      . . . . . . . .

(chorus)
eb|---------------------------------------------------------------------------|
Bb|---------------------------------------------------------------------------|
Gb|---------------------------------------------------------------------------|
Db|--------5-------7-7-7-7-7-7-------5-------5-5-5-5-5-5-------5--------------|
Ab|--5-7-8---8-7-5-5-5-5-5-5-5-5-7-8---8-7-5-3-3-3-3-3-3-5-7-8---8-7-5--3:----|
Eb|---------------------------------------------------------------------1:----|

eb|---------------------------------------------------------------------------|
Bb|---------------------------------------------------------------------------|
Gb|---------------------------------------------------------------------------|
Db|---------------7-7-7-7-7-7--5-5-5-5-5-5-5----------------------------------|
Ab|--8-8-8-8-8-8--5-5-5-5-5-5--3-3-3-3-3-3-3----------------------------------|
Eb|--6-6-6-6-6-6--------------------------------------------------------------|
(PM)                           . . . . . . .

(post chorus)
eb|---------------------------------------------------------------------------|
Bb|---------------------------------------------------------------------------|
Gb|---------------------------------------------------------------------------|
Db|---------------------------------------------------------------------------|
Ab|--5-5-5-5-5-5--7-7-7-7-7-7-7-7-7-7-7---------------------------------------|
Eb|--3-3-3-3-3-3--5-5-5-5-5-5-5-5-5-5-5---------------------------------------|
(PM) . . . . . .  . . . . . . . . . . .

(outro)
eb|---------------------------------------------------------------------------|
Bb|---------------------------------------------------------------------------|
Gb|---------------------------------------------------------------------------|
Db|--------5-------7-7-7-7-7-7-------5-------5-5-5-5-5-5-------5--------------|
Ab|--5-7-8---8-7-5-5-5-5-5-5-5-5-7-8---8-7-5-3-3-3-3-3-3-5-7-8---8-7-5--------|
Eb|---------------------------------------------------------------------------|

eB|---------------------------------------------------------------------------|
Bb|---------------------------------------------------------------------------|
Gb|---------------------------------------------------------------------------|
Db|------------------------------------7-7-7-7-7-7-7-7--5:--------------------|
Ab|--3-3-3-3-3-3-3-3--8-8-8-8-8-8-8-8--5-5-5-5-5-5-5-5--3:--------------------|
Eb|--1-1-1-1-1-1-1-1--6-6-6-6-6-6-6-6-----------------------------------------|


order:
intro         1x
verse         1x
chorus        2x
post chorus   1x
verse         1x (without the PM's)
chorus        3x
outro         1x


| PM Palm mute
| :  Let ring
| /  slide up
| \  slide down
| h  hammer-on
| p  pull-off
| ~  vibrato
| +  harmonic
| x  Mute note
===============================================================================
Tap to rate this tab
# A B C D E F G H I J K L M N O P Q R S T U V W X Y Z