Song name
# A B C D E F G H I J K L M N O P Q R S T U V W X Y Z

Misfits - Hunting Humans tab

-------------------------------------------------------------------------------
                          HUNTING HUMANS - Misfits
-------------------------------------------------------------------------------


Tune down 1/2 step:

|---|-------------------------------------------------|
|---|--------------------play-2-times-----------------|
|---|-------------------------------------------------|
|---|-2-2-2-2-2-2-2-2-2-2-2-2-4-4-4-4-4-4-4-4-4-4-4-4-|
|---|-2-2-2-2-2-2-2-2-2-2-2-2-4-4-4-4-4-4-4-4-4-4-4-4-|
|-\-|-0-0-0-0-0-0-0-0-0-0-0-0-2-2-2-2-2-2-2-2-2-2-2-2-|

|-------------------------------------------------|
|---------------------play-2-times----------------|
|-------------8-8-8-8-8-8-9-9-9-9-9-9-9-9-9-9-9-9-|
|-9-9-9-9-9-9-8-8-8-8-8-8-9-9-9-9-9-9-9-9-9-9-9-9-|
|-9-9-9-9-9-9-6-6-6-6-6-6-7-7-7-7-7-7-7-7-7-7-7-7-|
|-7-7-7-7-7-7-------------------------------------|
                                    pm-----------

|-------------------------------------------------------------------------------------------------|
|-------------------------------------------------------------------------------------------------|
|-------------------------------------------------------------------------------------------------|
|-9-9-9-9-9-9-8-8-8-8-8-8-6-6-6-6-6-6-4-4-4-4-4-4-2-2-2-2-2-2-2-2-2-2-2-2-4-4-4-4-4-4-4-4-4-4-4-4-|
|-9-9-9-9-9-9-8-8-8-8-8-8-6-6-6-6-6-6-4-4-4-4-4-4-2-2-2-2-2-2-2-2-2-2-2-2-4-4-4-4-4-4-4-4-4-4-4-4-|
|-7-7-7-7-7-7-6-6-6-6-6-6-4-4-4-4-4-4-2-2-2-2-2-2-0-0-0-0-0-0-0-0-0-0-0-0-2-2-2-2-2-2-2-2-2-2-2-2-|

|-------------------------------------------------|
|---------------------play-2-times----------------|
|-------------8-8-8-8-8-8-9-9-9-9-9-9-9-9-9-9-9-9-|
|-9-9-9-9-9-9-8-8-8-8-8-8-9-9-9-9-9-9-9-9-9-9-9-9-|
|-9-9-9-9-9-9-6-6-6-6-6-6-7-7-7-7-7-7-7-7-7-7-7-7-|
|-7-7-7-7-7-7-------------------------------------|
                                    pm-----------

|-------------------------------------------------------------------------------------------------|
|-------------------------------------------------------------------------------------------------|
|-------------------------------------------------------------------------------------------------|
|-9-9-9-9-9-9-8-8-8-8-8-8-6-6-6-6-6-6-4-4-4-4-4-4-2-2-2-2-2-2-2-2-2-2-2-2-4-4-4-4-4-4-4-4-4-4-4-4-|
|-9-9-9-9-9-9-8-8-8-8-8-8-6-6-6-6-6-6-4-4-4-4-4-4-2-2-2-2-2-2-2-2-2-2-2-2-4-4-4-4-4-4-4-4-4-4-4-4-|
|-7-7-7-7-7-7-6-6-6-6-6-6-4-4-4-4-4-4-2-2-2-2-2-2-0-0-0-0-0-0-0-0-0-0-0-0-2-2-2-2-2-2-2-2-2-2-2-2-|

|-------------------------------------------------|
|-------------------------------------------------|
|-------------------------------------------------|
|-2-2-2-2-2-2-2-2-2-2-2-2-4-4-4-4-4-4-4-4-4-4-4-4-|
|-2-2-2-2-2-2-2-2-2-2-2-2-4-4-4-4-4-4-4-4-4-4-4-4-|
|-0-0-0-0-0-0-0-0-0-0-0-0-2-2-2-2-2-2-2-2-2-2-2-2-|

|-------------------------------------------------|--------------------------------------|
|-------------------play-3-times------------------|--------------------------------------|
|-4-4-4-4-4-4-4-4-4-4-4-4-------------------------|-4-4-4-4-4-4-4-4-4-4-4-4--------------|
|-4-4-4-4-4-4-4-4-4-4-4-4-2-2-2-2-2-2-4-4-4-4-4-4-|-4-4-4-4-4-4-4-4-4-4-4-4---2--------4-|
|-2-2-2-2-2-2-2-2-2-2-2-2-2-2-2-2-2-2-4-4-4-4-4-4-|-2-2-2-2-2-2-2-2-2-2-2-2---2--------4-|
|-------------------------0-0-0-0-0-0-2-2-2-2-2-2-|---------------------------0--------2-|

|-------------------------------------------------|
|-------------------------------------------------|
|-4-4-4-4-4-4-4-4-4-4-4-4-------------------------|
|-4-4-4-4-4-4-4-4-4-4-4-4-4-4-4-4-4-4-4-4-4-4-4-4-|
|-2-2-2-2-2-2-2-2-2-2-2-2-4-4-4-4-4-4-4-4-4-4-4-4-|
|-------------------------2-2-2-2-2-2-2-2-2-2-2-2-|
                          pm---------------------

|-------------------------------------------------|
|---------------------play-2-times----------------|
|-------------8-8-8-8-8-8-9-9-9-9-9-9-9-9-9-9-9-9-|
|-9-9-9-9-9-9-8-8-8-8-8-8-9-9-9-9-9-9-9-9-9-9-9-9-|
|-9-9-9-9-9-9-6-6-6-6-6-6-7-7-7-7-7-7-7-7-7-7-7-7-|
|-7-7-7-7-7-7-------------------------------------|
                                    pm-----------

|-------------------------------------------------------------------------------------------------|
|-------------------------------------------------------------------------------------------------|
|-------------------------------------------------------------------------------------------------|
|-9-9-9-9-9-9-8-8-8-8-8-8-6-6-6-6-6-6-4-4-4-4-4-4-2-2-2-2-2-2-2-2-2-2-2-2-4-4-4-4-4-4-4-4-4-4-4-4-|
|-9-9-9-9-9-9-8-8-8-8-8-8-6-6-6-6-6-6-4-4-4-4-4-4-2-2-2-2-2-2-2-2-2-2-2-2-4-4-4-4-4-4-4-4-4-4-4-4-|
|-7-7-7-7-7-7-6-6-6-6-6-6-4-4-4-4-4-4-2-2-2-2-2-2-0-0-0-0-0-0-0-0-0-0-0-0-2-2-2-2-2-2-2-2-2-2-2-2-|

|-------------------------------------------------|
|-------------------------------------------------|
|-------------------------------------------------|
|-2-2-2-2-2-2-2-2-2-2-2-2-4-4-4-4-4-4-4-4-4-4-4-4-|
|-2-2-2-2-2-2-2-2-2-2-2-2-4-4-4-4-4-4-4-4-4-4-4-4-|
|-0-0-0-0-0-0-0-0-0-0-0-0-2-2-2-2-2-2-2-2-2-2-2-2-|

|-------------------------------------------------|--------------------------------------|
|-------------------play-3-times------------------|--------------play-2-times------------|
|-4-4-4-4-4-4-4-4-4-4-4-4-------------------------|-4-4-4-4-4-4-4-4-4-4-4-4--------------|
|-4-4-4-4-4-4-4-4-4-4-4-4-2-2-2-2-2-2-4-4-4-4-4-4-|-4-4-4-4-4-4-4-4-4-4-4-4---2--------4-|
|-2-2-2-2-2-2-2-2-2-2-2-2-2-2-2-2-2-2-4-4-4-4-4-4-|-2-2-2-2-2-2-2-2-2-2-2-2---2--------4-|
|-------------------------0-0-0-0-0-0-2-2-2-2-2-2-|---------------------------0--------2-|

|-------------------------------------------------|---|
|-------------------------------------------------|---|
|-4-4-4-4-4-4-4-4-4-4-4-4-------------------------|-4-|
|-4-4-4-4-4-4-4-4-4-4-4-4-2-2-2-2-2-2-4-4-4-4-4-4-|-4-|
|-2-2-2-2-2-2-2-2-2-2-2-2-2-2-2-2-2-2-4-4-4-4-4-4-|-2-|
|-------------------------0-0-0-0-0-0-2-2-2-2-2-2-|---|
Tap to rate this tab
 
# A B C D E F G H I J K L M N O P Q R S T U V W X Y Z