Song name
# A B C D E F G H I J K L M N O P Q R S T U V W X Y Z

Misfits - Hate The Living Love The Dead tab

-------------------------------------------------------------------------------
 		Hate The Living, Love The Dead - Misfits
-------------------------------------------------------------------------------
Tabbed by: Astrozombie138


Tuning: 1/2 step down

*During the beggining of the verse you play natural harmonics.
Just slide your finger while you are picking from the 3rd fret to the
nut without pressing down on the fretboard.*

(intro)
eb|---------------------------------------------------------------------------|
Bb|---------------------------------------------------------------------------|
Gb|---------------------------------------------------------------------------|
Db|---------------------------------------------------------------------------|
Ab|--\12-11-9-7-9-11-12-11-----9:---------------------------------------------|
Eb|--\10-9--7-5-7-9--10-9------7:---------------------------------------------|

*(Verse)* 
eb|----------------------------|----------------------------------------------|
Bb|----------------------------|----------------------------------------------|
Gb|----------------------------|----------------------------------------------|
Db|----------------------------|-----4----------------------------------------|
Ab|-------(NH's)---------------|--4--2--2----4--------------------------------|
Eb|--33333/222222/111111/000000|--2-----0--0-2--------------------------------|

(chorus)                                                     (2's and 3's)
eb|---------------------------------------------------------|-----------------|
Bb|---------------------------------------------------------|-----------------|
Gb|---------------------------------------------------------|-----------------|
Db|-----------------------9-9-9-9---------------------------|-----------------|
Ab|--10-10-10-10-9-9-9-9--7-7-7-7-------10-10-10-10-9-9-9-9-|-----------------|
Eb|--8--8--8--8--7-7-7-7-----------5\3--8--8--8--8--7-7-7-7-|-0023002300230023|
(PM)                                                          ................

(outro)
eb|---------------------------------------------------------------------------|
Bb|---------------------------------------------------------------------------|
Gb|---------------------------------------------------------------------------|
Db|---------------------------------------------------------------------------|
Ab|--12-11-9-7-9-11-12-11-----9-------7\6/7\6/7\6/7:(feedback)----------------|
Eb|--10-9--7-5-7-9--10-9------7-------5\4/5\4/5\4/5:--------------------------|

order:
intro     1x
verse     4x
chorus    2x
verse     4x
chorus    4x
outro     1x





| : let ring
| PM palm mute
| NH Natural harmonic
| :  Let ring
| /  slide up
| \  slide down
| h  hammer-on
| p  pull-off
| ~  vibrato
| x  Mute note
===============================================================================
Tap to rate this tab
 
# A B C D E F G H I J K L M N O P Q R S T U V W X Y Z