Song name
# A B C D E F G H I J K L M N O P Q R S T U V W X Y Z

Misfits - Dead Kings Rise tab

-------------------------------------------------------------------------------
			     Dead Kings Rise By The Misfits
-------------------------------------------------------------------------------
Tabbed by: Markc5
Email: Markc5@hotmail.com

Tuning: Standard
Intro
e|---------------------------------------------------------------------------|
B|------------------------x3----P.M------------------------------------------|
G|-5----7----8----7----5----------55555555-----77777777----88888888-----5----|
D|-5----7----8----7----5----------55555555-----77777777----88888888-----5----|
A|-3----5----6----5----3----------33333333-----55555555----66666666-----3----|
E|---------------------------------------------------------------------------|
Verse 1 :
Bound by battle scars
When the savages reigned
The lord of war
From his right hand man betrayed
Beneath the battle field
His murdered corpse they hide
Oh, curse from Hell
Avenge my death
Avenge the lies

        G         A#          D#          C
e|--------------------------------------------------------------------------|
B|-----------------------------------------------------------x6-------------|
G|-------------------------------88888-------555555-------------------------|
D|---------55555------88888------88888-------555555-------------------------|
A|--/6--5--55555------88888------66666-------333333-------------------------|
E|---------33333------66666-------------------------------------------------|
Chorus:
Flesh they stole
But the soul is not begotten
Through the gates of Hell
I'll seize my throne

Feel my sword
Though the flesh be dead and rotten
Dead kings rise for vengeance owed


e|---------------------------------------------------------------------------|
B|---------------------------------x4----------------------------------------|
G|---7777-----88888----------------------------------------------------------|
D|---7777-----88888----88888-------------------------------------------------|
A|---5555-----66666----88888-------------------------------------------------|
E|---------------------66666-------------------------------------------------|
-
Verse 2:
Bound by battle scars
When the savages reigned
The lord of war
From his right hand man betrayed
Beneath the battle field
His murdered corpse they hide
Oh, curse from Hell
Avenge my death
Avenge the lies

       G         A#          D#          C
e|--------------------------------------------------------------------------|
B|-----------------------------------------------------------x6-------------|
G|-------------------------------88888-------555555-------------------------|
D|---------55555------88888------88888-------555555-------------------------|
A|--/6--5--55555------88888------66666-------333333-------------------------|
E|---------33333------66666-------------------------------------------------|

Chorus:
Flesh they stole
But the soul is not begotten
Through the gates of Hell
I'll seize my throne

Feel my sword
Though the flesh be dead and rotten
Dead kings rise for vengeance owed

       D       D#        A#
e|---------------------------------------------------------------------------|
B|---------------------------------x8----------------------------------------|
G|---7777-----88888----------------------------------------------------------|
D|---7777-----88888----88888-------------------------------------------------|
A|---5555-----66666----88888-------------------------------------------------|
E|---------------------66666-------------------------------------------------|
Outro( same as intro)
e|---------------------------------------------------------------------------|
B|------------------------x3----P.M------------------------------------------|
G|-5----7----8----7----5----------55555555-----77777777----88888888-----5----|
D|-5----7----8----7----5----------55555555-----77777777----88888888-----5----|
A|-3----5----6----5----3----------33333333-----55555555----66666666-----3----|
E|---------------------------------------------------------------------------|



| /  slide up
| \  slide down
| h  hammer-on
| p  pull-off
| ~  vibrato
| +  harmonic
| x  Mute note
===============================================================================
Tap to rate this tab
 
# A B C D E F G H I J K L M N O P Q R S T U V W X Y Z