Song name
# A B C D E F G H I J K L M N O P Q R S T U V W X Y Z

Misfits - Ny Ranger tab

  artist:Misfits
    song:N.Y Ranger
   album:Cuts From The Crypt
   
|-------------------------------|
|-------------------------------|
|-------------------------------|
|----8-8-8-8-8-8-8-8-8----5-4-3-|
|----8-8-8-8-8-8-8-8-8----5-4-3-|
|----6-6-6-6-6-6-6-6-6----3-2-1-|

|-------------------------------|
|-------------------------------|
|-------------------------------|
|----8-8-8-8-8-8-8-8-8----5-4-3-|
|----8-8-8-8-8-8-8-8-8----5-4-3-|
|----6-6-6-6-6-6-6-6-6----3-2-1-|

|-------------------------------|
|-------------------------------|
|-------------------------------|
|----8-8-8-8-8-8-8-8-8----5-4-3-|
|----8-8-8-8-8-8-8-8-8----5-4-3-|
|----6-6-6-6-6-6-6-6-6----3-2-1-|

         Tabbed By
           Whiplash_91
Tap to rate this tab
 
# A B C D E F G H I J K L M N O P Q R S T U V W X Y Z