Guitaretab - guitar tabs
Song name
# A B C D E F G H I J K L M N O P Q R S T U V W X Y Z

Misfits - Cant Tell No One tab

-------------------------------------------------------------------------------
                  CAN'T TELL NO ONE - MISFITS
-------------------------------------------------------------------------------

By:David Bostijn  David.Bostijn@pi.be

e|---------------------------------------------------------------------------|
B|---------------------------------------------------------------------------|
G|---------------------------------------------------------------------------|
D|---------------------------------------------------------------------------|
A|--10--11-11-11-------10--11-11-11------------------------------------------|
E|---8---9--9--9-...----8---9--9--9-...--------------------------------------|
[ Tab from: http://www.guitaretab.com/m/misfits/54071.html ]
  Repeat this 4x, listen to the song to find out how many times to play 11/9
e|---------------------------------------------------------------------------|
B|---------------------------------------------------------------------------|
G|---------------------------------------------------------------------------|
D|--------------11-11---------------11-11------------------------------------|
A|--11-11-11-11--9--9--11-11-11-11---9--9--11-11--7-7-7-7-7-7-7-7------------|
E|---9--9--9--9---------9--9--9--9----------9--9--5-5-5-5-5-5-5-5------------|

e|---------------------------------------------------------------------------|
B|---------------------------------------------------------------------------|
G|---------------------------------------------------------------------------|
D|---------------------------------------------------------------------------|
A|--9-9-9-9-9-9-9-9----------------------------------------------------------|
E|--7-7-7-7-7-7-7-7----------------------------------------------------------|

  you gotta repeat these 2 lines 2x
e|---------------------------------------------------------------------------|
B|---------------------------------------------------------------------------|
G|---------------------------------------------------------------------------|
D|--------7----------9-------------------------------------------------------|
A|---7-7--5--7--9-9--7--9------(4x)------------------------------------------|
E|---5-5-----5--7-7-----7----------------------------------------------------|

   Can't tell no one...
   Then repeat from beginning!
Related for Cant Tell No One tab
Advertisement will be closed in 10 seconds