Song name
# A B C D E F G H I J K L M N O P Q R S T U V W X Y Z

Misfits - Magic Moment tab

The Misfits

This Magic Moment - taken from the album Project 1950


Intro

E-----------------------------------------------------------------|
B-----------------------------------------------------------------|
G-6-6-6-6-6-6-6-6-3-3-3-3-3-3-3-3---------------------------------|
D-6-6-6-6-6-6-6-6-3-3-3-3-3-3-3-3-4-4-4-4-4-4-4-4-6-6-6-6-6-6-6-6-|
A-4-4-4-4-4-4-4-4-1-1-1-1-1-1-1-1-4-4-4-4-4-4-4-4-6-6-6-6-6-6-6-6-|
E---------------------------------2-2-2-2-2-2-2-2-4-4-4-4-4-4-4-4-|


Verse

E---------------------------------------------------------------------|
B---------------------------------------------------------------------|
G-6-6-6-6-6-6-6-6-3-3-3-3-3-3-3-3-------------------------------------|
D-6-6-6-6-6-6-6-6-3-3-3-3-3-3-3-3-4-4-4-4-4-4-4-4-6-6-6-6-6-6-6-6-----|    x2
A-4-4-4-4-4-4-4-4-1-1-1-1-1-1-1-1-4-4-4-4-4-4-4-4-6-6-6-6-6-6-6-6-----|
E---------------------------------2-2-2-2-2-2-2-2-4-4-4-4-4-4-4-4-----|


Chorus

E-----------------------------------------------------------------|
B-----------------------------------------------------------------|
G-3-3-3-3-3-3-3-3-----------------6-6-6-6-6-6-6-6-----------------|
D-3-3-3-3-3-3-3-3-4-4-4-4-4-4-4-4-6-6-6-6-6-6-6-6-6-6-6-6-6-6-6-6-|
A-1-1-1-1-1-1-1-1-4-4-4-4-4-4-4-4-4-4-4-4-4-4-4-4-6-6-6-6-6-6-6-6-|
E-----------------2-2-2-2-2-2-2-2-----------------4-4-4-4-4-4-4-4-|

Verse

E---------------------------------------------------------------------|
B---------------------------------------------------------------------|
G-6-6-6-6-6-6-6-6-3-3-3-3-3-3-3-3-------------------------------------|
D-6-6-6-6-6-6-6-6-3-3-3-3-3-3-3-3-4-4-4-4-4-4-4-4-6-6-6-6-6-6-6-6-----|    x3
A-4-4-4-4-4-4-4-4-1-1-1-1-1-1-1-1-4-4-4-4-4-4-4-4-6-6-6-6-6-6-6-6-----|
E---------------------------------2-2-2-2-2-2-2-2-4-4-4-4-4-4-4-4-----|


(Intro/middle)

E-----------------------------------------------------------------|
B-----------------------------------------------------------------|
G-6-6-6-6-6-6-6-6-3-3-3-3-3-3-3-3---------------------------------|
D-6-6-6-6-6-6-6-6-3-3-3-3-3-3-3-3-4-4-4-4-4-4-4-4-6-6-6-6-6-6-6-6-|
A-4-4-4-4-4-4-4-4-1-1-1-1-1-1-1-1-4-4-4-4-4-4-4-4-6-6-6-6-6-6-6-6-|
E---------------------------------2-2-2-2-2-2-2-2-4-4-4-4-4-4-4-4-|


Chorus

E-----------------------------------------------------------------|
B-----------------------------------------------------------------|
G-3-3-3-3-3-3-3-3-----------------6-6-6-6-6-6-6-6-----------------|
D-3-3-3-3-3-3-3-3-4-4-4-4-4-4-4-4-6-6-6-6-6-6-6-6-6-6-6-6-6-6-6-6-|
A-1-1-1-1-1-1-1-1-4-4-4-4-4-4-4-4-4-4-4-4-4-4-4-4-6-6-6-6-6-6-6-6-|
E-----------------2-2-2-2-2-2-2-2-----------------4-4-4-4-4-4-4-4-|


Verse

E---------------------------------------------------------------------|
B---------------------------------------------------------------------|
G-6-6-6-6-6-6-6-6-3-3-3-3-3-3-3-3-------------------------------------|
D-6-6-6-6-6-6-6-6-3-3-3-3-3-3-3-3-4-4-4-4-4-4-4-4-6-6-6-6-6-6-6-6-----|    x3
A-4-4-4-4-4-4-4-4-1-1-1-1-1-1-1-1-4-4-4-4-4-4-4-4-6-6-6-6-6-6-6-6-----|
E---------------------------------2-2-2-2-2-2-2-2-4-4-4-4-4-4-4-4-----|


then end on...

E-----
B-----
G-----
D--6--
A--6--
E--4--
Tap to rate this tab
# A B C D E F G H I J K L M N O P Q R S T U V W X Y Z