Song name
# A B C D E F G H I J K L M N O P Q R S T U V W X Y Z

Mishka - Guy With A Guitar tab

This is the Mishka Song of the CD Above the Bones. The song is not too bad to learn the 
are all barre chords.

Standard Tuning: EADGBE


|-A----D1----E-----D2----|

|-5----7-----10-----9-----|
|-5----7-----10-----9-----|
|-6----7-----12-----9-----|
|-7----7-----11-----9-----|
|-7----5-----11-----7-----|
|-5----x-----10-----x-----|

Intro
A D1 A D1 D2 E D1


The chorus just alternates between A and D1 and back into the intro until the very last 
lines of the song which is the same progression with a picked pattern.
        |-------A--------|------D1------|        |-------A--------|-------D1-----------|
e|---------------5---------------7------------------------5---------------7------------|
B|-----------5-----5---5------7----7----7-------------5-----5---5------7----7----7-----|
G|-------------7-----7---------7-----7------------------7-----7---------7-----7--------|
D|---------6----------------7-----------------------6----------------7-----------------|
A|------------------------5-----------------------------------------5------------------|
E|-------5---------------------------------------5-------------------------------------|


        |-------D2--------|-------E-------|-------D1---------|
e|-----------------10-------------9----------------7---------|
B|------------10----10---10-----9---9---9------7-----7---7---|
G|---------------12---12---------9----9----------7-----7-----|
D|---------11-----------------9---------------7--------------|
A|--------------------------7---------------5----------------|
E|-------10--------------------------------------------------|
Tap to rate this tab
# A B C D E F G H I J K L M N O P Q R S T U V W X Y Z