Song name
# A B C D E F G H I J K L M N O P Q R S T U V W X Y Z

Mishka - Above The Bones tab

Rhythm: Capo on the 3rd

G Am C G D

He plays that progression over and over except on the bridge "I wanna go home. Take Me 
home..." he plays: E Am

Lead: No Capo

e|---------------------------------------------------------------------------------|
B|---------------------------------------------------------------------------------|
G|---7/8---7---5----3----5---3-----------------------------------------------------|
D|-------------------------------5---3------------6---8p6------6-------------------|
A|--------------------------------------6~----6/8-----------8----------------------|
E|---------------------------------------------------------------------------------|

e|------------------------|--------------------------------------------|
B|------------------------|--------------------------------------------|
G|--------8------8h10~~~--|--------8----8h10/12~~~~~-------------------|
D|---8/10---10------------|---8/10---10--------------------------------|
A|------------------------|--------------------------------------------|
E|------------------------|--------------------------------------------|


e|--------------------------------------------------------------------|
B|--------------------------------------------------------------------|
G|---------10-----------------------------7/8--7--5--3----------------|
D|--10/12-----12p10---8--10~~----10---8-------------------------------|
A|--------------------------------------------------------------------|
E|--------------------------------------------------------------------|


e|--------------------------------------------------------------------|
B|-----------------6--------------------------------------------------|
G|--------3---5/7-----5h7---5-----------------------------------------|
D|---3h5-------------------------3h5---3--3~~~~~----------------------|
A|--------------------------------------------------------------------|
E|--------------------------------------------------------------------|


for the rest of the song just use bits and pieces of this intro riff and it will sound good.
there may be one or two mistakes in here so if you find one please leave a comment or 
email me @ jakedmann@hotmail.com
Tap to rate this tab
# A B C D E F G H I J K L M N O P Q R S T U V W X Y Z