Song name
# A B C D E F G H I J K L M N O P Q R S T U V W X Y Z

Mishka - Talk About chords

Highlighted       Show chord diagrams
-------------------------------------------------------------------------------
			     TALK ABOUT - MISHKA
-------------------------------------------------------------------------------
Tabbed by:
Email: jakedmann@hotmail.com

Tuning:  Standard

          C                      G                    F                   C
e|----0------------1-----------1----------0----------------------------------|
B|----1------------0-----------1----------1----------------------------------|
G|----0------------0-----------2----------0----------------------------------|
D|----2------------0-----------3----------2----------------------------------|
A|----3------------2----------------------3----------------------------------|
E|-----------------3---------------------------------------------------------|

      He plays this same progression throughout the song. Just a simple I IV V 
chord song in the key of C.  Email me or comment on this if you have any requests.

************************************

| /   slide up
| \   slide down
| h   hammer-on
| p   pull-off
| ~   vibrato
| +   harmonic
| x   Mute note
| b   Bend
| pb  Pre-bend
| br  Bend release
| pbr Pre-bend release
| brb Bend release bend

************************************
Tap to rate this tab
# A B C D E F G H I J K L M N O P Q R S T U V W X Y Z