Song name
# A B C D E F G H I J K L M N O P Q R S T U V W X Y Z

Miss May I - Architect tab

Song: Architect
Band: Miss May I

Tuning: Drop C (C G C F A D)

Tabbed by: Aaron Stinson
E-Mail: Arsenik92@live.com

PM = palm mute
T = tremolo pick
~ = hold note
* = harmonic
b = bend

2/12/09: Tab posted
2/12/09: Tab UPDATED: mistakes fixed, added more to tab
2/13/09: Tab to be updated

Intro I (0:03-0:17)

Guitars I,II
|-------------------------------------------------------------|
|-------------------------------------------------------------|
|-------------------------------------------------------------|
|-----------------------------8----7---5---7--5h7p5-----------|
|------5---7----8----7---5--------------------------8-7-5-7---|
|-0--0---0----0----0---0---0----0----0---0------------------0-|
PM   -   -    -    -   -   -    -    -   -          ---------

|-------------------------------------------------------------|
|-------------------------------------------------------------|
|---------------------------------------------5h7p5-----------|
|-----------------------------8----7---5---7--------8-7-5-7---|
|------5---7----8----7---5------------------------------------|
|-0--0---0----0----0---0---0----0----0---0------------------0-|
PM   -   -    -    -   -   -    -    -   -          ---------

|-------------------------------------------------------------|
|-------------------------------------------------------------|
|-------------------------------------------------------------|
|-----------------------------8----7---5---7--5h7p5-----------|
|------5---7----8----7---5--------------------------8-7-5-7---|
|-0--0---0----0----0---0---0----0----0---0------------------0-|
PM   -   -    -    -   -   -    -    -   -          ---------

|----------------------------------------------------|
|----------------------------------------------------|
|----------------------------------------------------|
|-----------------------------8----7---5---7---------|
|------5---7----8----7---5--------------------000----|
|-0--0---0----0----0---0---0----0----0---0----000----|
PM   -   -    -    -   -   -    -    -   -    ---

Intro II (0:17-0:34)

Guitar I
|-------------------------------------------------------------|
|-------------------------------------------------------------|
|-------------------------------------------------------------|
|-----------------------------8----7---5---7--5h7p5-----------|
|------5---7----8----7---5--------------------------8-7-5-7---|
|-0--0---0----0----0---0---0----0----0---0------------------0-|
PM   -   -    -    -   -   -    -    -   -          ---------

|-------------------------------------------------------------|
|-------------------------------------------------------------|
|---------------------------------------------5h7p5-----------|
|-----------------------------8----7---5---7--------8-7-5-7---|
|------5---7----8----7---5------------------------------------|
|-0--0---0----0----0---0---0----0----0---0------------------0-|
PM   -   -    -    -   -   -    -    -   -          ---------

|-------------------------------------------------------------|
|-------------------------------------------------------------|
|-------------------------------------------------------------|
|-----------------------------8----7---5---7--5h7p5-----------|
|------5---7----8----7---5--------------------------8-7-5-7---|
|-0--0---0----0----0---0---0----0----0---0------------------0-|
PM   -   -    -    -   -   -    -    -   -          ---------

|-------------------------------------------------------|
|-------------------------------------------------------|
|-------------------------------------------------------|
|-----------------------------8----7---5---7------------|
|------5---7----8----7---5--------------------000--000--|
|-0--0---0----0----0---0---0----0----0---0----000--000--|
PM   -   -    -    -   -   -    -    -   -    ---  ---

Guitar II

|-----------------------------------------------------------|
|-----------------------------------------------------------|
|-----------------------------7---5-------5-----------------|
|----------5----7----5----------------8-----8h10p8-7-5---5--|
|------8-----------------8-----------------------------8----|
|-0--0---0----0----0---0---0----0---0---0-----------------0-|
PM   -   -    -    -   -   -    -    -  -          ---------

|-----------------------------------------------------------|
|-----------------------------------------------------------|
|-----------------------------7---5-------5-8h10p8-7-5---5--|
|----------5----7----5----------------8----------------8----|
|------8-----------------8----------------------------------|
|-0--0---0----0----0---0---0----0---0---0-----------------0-|
PM   -   -    -    -   -   -    -    -  -          ---------

|-----------------------------------------------------------|
|-----------------------------------------------------------|
|-----------------------------7---5-------5-----------------|
|----------5----7----5----------------8-----8h10p8-7-5---5--|
|------8-----------------8-----------------------------8----|
|-0--0---0----0----0---0---0----0---0---0-----------------0-|
PM   -   -    -    -   -   -    -    -  -          ---------

|------------------------------------------------------|
|------------------------------------------------------|
|-----------------------------7---5-------5------------|
|----------5----7----5----------------8----------------|
|------8-----------------8-------------------000--000--|
|-0--0---0----0----0---0---0----0---0---0----000--000--|
PM   -   -    -    -   -   -    -    -  -    ---  ---

(0:35-0:50) play twice

Guitars I, II
|-------------------------------------------------------------|
|-------------------------------------------------------------|
|-------------------------------------------------------------|
|-------------------------------------------------------------|
|------10---8---8---8---8---8-------8---7---7---7---7---7---7-|
|-8--8----8---8---8---8---8----5--5---5---5---5---5---5---5---|
PM   -    -   -   -   -   -       -   -   -   -   -   -   -

|------------------------------------------------------------|
|------------------------------------------------------------|
|------------------------------------------------------------|
|------------------------------------------------------------|
|-------8-----------------------8----------------------------|
|-0--7-----0--5--8--7--5--0--7-----0--5--8--7--5-------------|
     T  T  T  T  T  T  -     T  T  T  T  T  T  -

(0:50-1:02)

Guitar I
|---------------------------------|
|---------------------------------|
|---------------------------------|
|-------7----5~-------------------|
|----------------------8---7~-----|
|-8--8----8-------5--5---5--------|
PM   -    -          -   -

Guitar II
|---------------------------------|
|---------------------------------|
|---------------------------------|
|---------------------------------|
|-------8----7~--------5---3~-----|
|-8--8----8-------5--5---5--------|
PM   -    -          -   -

Guitar I
|--------------------------------------------------|
|--------------------------------------------------|
|--------------------------------------------------|
|--------------------------------------------------|
|-------8-----------------------8------------------|
|-0--7-----0--5--8--7--5--0--7-----0--5--8--7--5---|
     T  T  T  T  T  T  -     T  T  T  T  T  T  -

Guitar II
|--------------------------------------------------|
|--------------------------------------------------|
|--------------------------------------------------|
|-------7-----------------------7------------------|
|----5--------5--8--7--5-----5--------5--8--7--5---|
|-0--------0--------------0--------0---------------|
     T  T  T  T  T  T  -     T  T  T  T  T  T  -

Guitar I
|---------------------------------|
|---------------------------------|
|---------------------------------|
|-------7----5~-------------------|
|----------------------8---7~-----|
|-8--8----8-------5--5---5--------|
PM   -    -          -   -

Guitar II
|---------------------------------|
|---------------------------------|
|---------------------------------|
|---------------------------------|
|-------8----7~--------5---3~-----|
|-8--8----8-------5--5---5--------|
PM   -    -          -   -

(1:03-1:17) play twice

Guitar I
|------------------------------------------|
|------------------------------------------|
|------------------------------------------|
|------------------------------------------|
|-0~--0-0-0-0-0-0-000--0-0-0-0-0-000--3*b--|
|-0~--0-0-0-0-0-0-000--0-0-0-0-0-000-------|
PM    - - - - - - ---  - - - - - ---

|----------------------------------|
|----------------------------------|
|----------------------------------|
|-------------------------3--------|
|-0-0-0-0-0-0-000---1-3-4---3-4-2--|
|-0-0-0-0-0-0-000------------------|
PM- - - - - - ---   - - -   - - -

Guitar II
|------------------------------------------|
|------------------------------------------|
|------------------------------------------|
|------------------------------------------|
|-0~--0-0-0-0-0-0-000--0-0-0-0-0-000-------|
|-0~--0-0-0-0-0-0-000--0-0-0-0-0-000--3*b--|
PM    - - - - - - ---  - - - - - ---

|----------------------------------|
|----------------------------------|
|-------------------------2--------|
|---------------------1-2---1-2----|
|-0-0-0-0-0-0-000---4-----------5--|
|-0-0-0-0-0-0-000------------------|
PM- - - - - - ---   - - -   - - -

(1:18-1:31)

Guitar I
|------------------------------------------|
|------------------------------------------|
|------------------------------------------|
|------------------------------------------|
|-0~--0-0-0-0-0-0-000~-0-0-0-0-0-000--000--|
|-1~--1-1-1-1-1-1-111~-1-1-1-1-1-111~-111~-|
PM    - - - - - - ---  - - - - - ---

|----------------------------------|
|----------------------------------|
|----------------------------------|
|-------------------------3--------|
|-0-0-0-0-0-0-000~--1-3-4---3-4-2--|
|-1-1-1-1-1-1-111~-----------------|
PM- - - - - - ---   - - -   - - -

Guitar II
|------------------------------------------|
|------------------------------------------|
|------------------------------------------|
|------------------------------------------|
|-0~--0-0-0-0-0-0-000~-0-0-0-0-0-000~-000~-|
|-1~--1-1-1-1-1-1-111~-1-1-1-1-1-111~-111~-|
PM    - - - - - - ---  - - - - - ---

|----------------------------------|
|----------------------------------|
|-------------------------2--------|
|---------------------1-2---1-2----|
|-0-0-0-0-0-0-000~--4-----------5--|
|-1-1-1-1-1-1-111~-----------------|
PM- - - - - - ---   - - -   - - -

(1:32-1:47) play twice

Guitars I,II
|------------------------------|
|------------------------------|
|------------------------------|
|------------------------------|
|--------------8--7-5-7--5-----|
|-0--5-7-8-7-5-------------8p7-|

|------------------------------|
|------------------------------|
|------------------------------|
|------------------------------|
|--------------8--7-5-7--5-----|
|-0--5-7-8-7-5-------------8p7-|

|--------------------------------|
|--------------------------------|
|--------------------------------|
|--------5-7-8/10--8-7-8---------|
|----7-8------------------10-8-7-|
|-8------------------------------|

|--------------------------|
|--------------------------|
|--------------------------|
|--------5-7-8-7--5----5---|
|----7-8------------8----7-|
|-7------------------------|

on second time, end on this:
|---------------------------------------------|
|---------------------------------------------|
|-14-14-14-14-12-12-12-12-9-9-9-9-10-10-10-10-|
|--x--x--x--x--x--x--x--x-x-x-x-x--x--x--x--x-|
|-12-12-12-12-10-10-10-10-7-7-7-7--8--8--8--8-|
|---------------------------------------------|

(1:47 - 2:34)

Guitars I, II
|--------------------------------------------|
|--------------------------------------------|
|--------------------------------------------|
|--------------------------------------------|
|-3--3-3-3-3-3-3-3---3-3-3-3-3-3-3-3-5-5-5-5-|
|-3--3-3-3-3-3-3-3---3-3-3-3-3-3-3-3-5-5-5-5-|

|-----------------------------------------------|
|-----------------------------------------------|
|-----------------------------------------------|
|-----------------------------------------------|
|-0--0-0-0-0--00-00-00--0--0-0-0-0-0-0-00-00-00-|
|-0--0-0-0-0--00-00-00--0--0-0-0-0-0-0-00-00-00-|
PM   - - - -  -- -- --     - - - - - - -- -- --

(2:08 - 2:11)
random filler
|----------------------------| |----------------------------|
|----------------------------| |----------------------------|
|----------------------------| |----------------------------|
|----------------------------| |-7-5--------------------5-7-|
|-8-7-5-0--0-0-0-0-0-0-5-7-8-| |-----8-0--0-0-0-0-0-0-8-----|
|-------0--0-0-0-0-0-0-------| |-------0--0-0-0-0-0-0-------|
PM         - - - - - -         PM         - - - - - -

(2:34 - 2:38)

|---------------------------------------|
|---------------------------------------|
|---------------------------------------|
|---------------------------------------|
|---------------------------------------|
|-00--00--00--00--000000--(bass slide)--|
PM--  --  --  --  ------

( : - : )

|---------------------------------------|
|---------------------------------------|
|---------------------------------------|
|---------------------------------------|
|---------------------------------------|
|-000--000--000--000--000000--000--000--|
PM---  ---  ---  ---  ------  ---  ---

|---------------------------------------|
|---------------------------------------|
|---------------------------------------|
|---------------------------------------|
|-----------------------------8-7--0~---|
|-000--000--000--000--000000--8-7--1~---|
  ---  ---  ---  ---  ------  - -  

( : - : ) play twice

|---------------------------------|
|---------------------------------|
|---------------------------------|
|---------------------------------|
|-000~-000~-000~-000~-0000000000--|
|-111~-111~-111~-111~-1111111111--|

( : - : )

|------------------------------------------|
|------------------------------------------|
|------------------------------------------|
|------------------------------------------|
|------------------------------------------|
|------------------------------------------|

Will finish later. I have work to do.












Tap to rate this tab
# A B C D E F G H I J K L M N O P Q R S T U V W X Y Z