Song name
# A B C D E F G H I J K L M N O P Q R S T U V W X Y Z

Miss May I - Forgive And Forget tab

----------------------------------------------------------
MISS MAY I-Forgive And Forget
-----------------------------

-Tabbed by: timax

-Tunning: Drop C (C-G-C-F-A-D)

I just found the lead of this song.

Intro x4 ALTERNATE PICKING
D|-------------------------------------------------------------------------|
A|-------------------------------------------------------------------------|
F|-------------------------------------------------------------------------|
C|-------------------------------------------------------------------------|
G|-----------------5-------------------------------------------------------|
C|-0-8-7-4-5-1-4-1--1-5----------------------------------------------------|

Verse I x4
D|-------------------------------------------------------------------------|
A|-------------------------------------------------------------------------|
F|-------------------------------------------------------------------------|
C|-------------------------------------------------------------------------|
G|------------------------------------1----2-------------------------------|
C|0--0-8-0-7-0-4-00-4-00-4-5-1-4-1-11---44---------------------------------|
     .   .   .   ..   ..           ..   ..

Intro x2


Verse II x5
D|-------------------------------------------------------------------------|
A|-------------------------------------------------------------------------|
F|-------------------------------------------------------------------------|
C|-------------------------------------------------------------------------|
G|---8---8----8---8---8----12---12----10----10---10------------------------|
C|00---0---00--00---0---88----8----77----77----7---------------------------|
  ..   .   ..  ..   .   ..    .    ..    ..    .

Pre Chorus x4
D|--1----------------------------------------------------------------------|
A|----------1-------6------------------------------------------------------|
F|----2-----------2--------------------------------------------------------|
C|3-------2---2/3----------------------------------------------------------|
G|------3------------------------------------------------------------------|
C|-------------------------------------------------------------------------|


D|----------------------------------------------------------1--------------|
A|-------------------------------------------------------------------------|
F|-------------------------------------------------------------------------|
C|0----------0-0----------------0----------0-0------------2----------------|
G|0-00000000-0-0-00000000-------0-00000000-0-0-00000000-3------------------|
C|0-00000000-0-0-00000000-0-1h4-0-00000000-0-0-00000000--------------------|
    ........     ........         ........     ........

Chorus x 4
D|--1-----------------|------1---------------------------------------------|
A|----------1-------6-|----1-----------------------------------------------|
F|----2-----------2---|----------------------------------------------------|
C|3-------2---2/3-----|--2-------------------------------------------------|
G|------3-------------|3---------------------------------------------------|
C|--------------------|----------------------------------------------------|


Breakdown
D|-------------------------------------------------------------------------|
A|-------------------------------------------------------------------------|
F|-------------------------------------------------------------------------|
C|-------------------------------------------------------------------------|
G|6-6-6-6-6-6-6-6-6-6-6-6-6-6-6-6-66666666666666666666666666666666---------|
C|0-0-0-0-0-0-0-0-0-0-0-0-0-0-0-0-00000000000000000000000000000000---------|
  . . . . . . . . . . . . . . . . ................................

D|-------------------------------------------------------------------------|
A|-------------------------------------------------------------------------|
F|-------------------------------------------------------------------------|
C|-------------------------------------------------------------------------|
G|00--0-0-0-0--00--0-0-0-0-------------------------------------------------|
C|00--0-0-0-0--00--0-0-0-0-------------------------------------------------|
  ..  . . . .  ..  . . . .

D|-------------------------------------------------------------------------|
A|-------------------------------------------------------------------------|
F|-------------------------------------------------------------------------|
C|-------------------------------------------------------------------------|
G|6-6-6-6-6-6-6-6-6-6-6-6-6-6-6-6-66666666666666666666666666666666---------|
C|0-0-0-0-0-0-0-0-0-0-0-0-0-0-0-0-00000000000000000000000000000000---------|
  . . . . . . . . . . . . . . . . ................................

D|-------------------------------------------------------------------------|
A|-------------------------------------------------------------------------|
F|-------------------------------------------------------------------------|
C|-------------------------------------------------------------------------|
G|00--0-0-0-0--00--000000--------------------------------------------------|
C|00--0-0-0-0--00--000000--------------------------------------------------|
  ..  . . . .  ..  ......

Outro   Let Notes Ring
D|-------------------------------------------------------------------------|
A|-------------------------------------------------------------------------|
F|10-----9-----12-----10--10--9--------------------------------------------|
C|-7-----7-----10------7---7--7--------------------------------------------|
G|-------------------------------------------------------------------------|
C|-------------------------------------------------------------------------|

D|-------------------------------------------------------------------------|
A|-------------------------------------------------------------------------|
F|-------------------------------------------------------------------------|
C|10101010101010101010101010101010-0-0-0-999-0-0-0-999-0-0-9-0-------------|
G|-7-7-7-7-7-7-7-7-7-7-7-7-7-7-7-7-0-0-0-777-0-0-0-777-0-0-7-0-------------|
C|---------------------------------0-0-0-----0-0-0-----0-0---0-------------|
                                   . . .     . . .     . .   .

D|-------------------------------------------------------------------------|
A|-------------------------------------------------------------------------|
F|-------------------------------------------------------------------------|
C|-12121212121212121212121212121212-0-0-0-101010-0-0-0-101010-0-0-10-0-----|
G|-10101010101010101010101010101010-0-0-0--7-7-7-0-0-0--7-7-7-0-0--7-0-----|
C|----------------------------------0-0-0--------0-0-0--------0-0----0-----|
                                    . . .        . . .        . .    .

D|-------------------------------------------------------------------------|
A|-------------------------------------------------------------------------|
F|-------------------------------------------------------------------------|
C|10101010101010101010101010101010-0-0-0-999-0-0-0-999-0-0-9-0-------------|
G|-7-7-7-7-7-7-7-7-7-7-7-7-7-7-7-7-0-0-0-777-0-0-0-777-0-0-7-0-------------|
C|---------------------------------0-0-0-----0-0-0-----0-0---0-------------|
                                   . . .     . . .     . .   .


D|------------------------------------------------------------------------||
A|------------------------------------------------------------------------||
F|------------------------------------------------------------------------||
C|-12121212121212121212121212121212-0-0-0-101010-0-0-0-1010910910910------||
G|-10101010101010101010101010101010-0-0-0--7-7-7-0-0-0--7-77-77-77-7------||
C|----------------------------------0-0-0--------0-0-0--------------------||
                                    . . .        . . .
Tap to rate this tab
 
# A B C D E F G H I J K L M N O P Q R S T U V W X Y Z