Song name
# A B C D E F G H I J K L M N O P Q R S T U V W X Y Z

Miss May I - Relentless Chaos tab

I am tabbing this song by ear, so if you have any suggestions or see any mistakes,
let me know and i will look into it. Thanks


Key:
. Palm Mute
* Tremolo Mute
x Mute Fretboard
\ Slide Down
/ Slide Up
h Hammer On
p Pull Off
~ Sustain
" Upstroke/Pick Up

Chorus I     X4
C|----------------------|-------------------------|
G|-------------------X2-|----------------------X2-|
C|-10--9-10-7--7---7----|--12--10-12-9--9---9-----|
F|---00-0--0-00-000-0---|----00--0--0-00-000-0----|
A|----------------------|-------------------------|
D|----------------------|-------------------------|
     .. .  . .. ... .        ..  .  . .. ... .

Verse I
C|-----------------------------------------|
G|-----------------------------------------|
C|-----------------------------------------|
F|-----------------------------------------|
A|-12--12--12-10--10--10-8--8--8-7--7--7---|
D|---00--00--0--00--00--0-00-00-0-00-00-0--|
     ..  ..  .  ..  ..  . .. .. . .. .. .

C|-----------------------------------------|
G|-----------------------------------------|
C|-----------------------------------------|
F|-----------------------------------------|
A|-12--12--12-10--10--10-8--8--8-7--7--7---|
D|---88--88--8--88--88--8-88-88-8-88-88-8--|
     ..  ..  .  ..  ..  . .. .. . .. .. .

C|-----------------------------------------------|
G|-----------------------------------------------|
C|-----------------------------------------------|
F|-----------------------------------------------|
A|-15--15--15-13--13--13-12--12--12-10--10--10---|
D|---00--00--0--00--00--0--00--00--0--00--00--0--|
     ..  ..  .  ..  ..  .  ..  ..  .  ..  ..  .

C|-----------------------------------------|
G|-----------------------------------------|
C|-----------------------------------------|
F|-----------------------------------------|
A|-12--12--12-10--10--10-8--8--8-7--7--7---|
D|---88--88--8--88--88--8-88-88-8-88-88-8--|
     ..  ..  .  ..  ..  . .. .. . .. .. .

Interlude
C|-----------------------------------------------|
G|-----------------------------------------------|
C|-----------------------------------------------|
F|--0x---------------0x--------------------------|
A|--0x---------------0x--------------------------|
D|--0x---------------0x--------pickslide\--------|

Verse II     X4
C|--------------------------------------------------------|
G|--------------------------------------------------------|
C|--------------------------------------------------------|
F|-0------------------------------------------------3h2---|
A|-0--5---5-5---------------------------------------3h2---|
D|-0-0-000-0-7-0-7-0-7-0-7h8-0-8-000-8-0-8h10-0-10--3h2---|
     . ... .   .   .   .     .   ...   .      .

Chorus II     X2                            Fill
C|------------------------------------|     |----------------|
G|------------------------------------|     |----------------|
C|------------------------------------|     |----------------|
F|-0~----0---------0~-----0-----------|     |-8v~---\7--5--3-|
A|-0~-00-0-0---000-0~-000-0---0h3p2---|     |----------------|
D|-0~-00-0-0---000-0~-000-0---0h3p2---|     |----------------|
      ..   .   *** *  ***

Verse III
C|---------------------------------------------|
G|---------------------------------------------|
C|---------------------------------------------|
F|---------------------------------------------|
A|--12---12-12p8-8-8-8h10-10---10-10p7-7-7-7h8-|
D|-0--000--0----0-0-0----0--000--0----0-0-0----|
   .  ...  .    . . .    .  ...  .    . . .

|----------------------------------------------|
|----------------------------------------------|
|----------------------------------------------|
|----------------------------------------------|
|--8---8-8--8--8-8h10-10---10-10--10-10h12-12~-|
|-8-888-8-88-88------8--888--8--88--8----------|
  . ... . .. ..      .  ...  .  ..  .

C|---------------------------------------------|
G|---------------------------------------------|
C|---------------------------------------------|
F|---------------------------------------------|
A|--12---12-12p8-8-8-8h10-10---10-10p7-7-7-7h8-|
D|-0--000--0----0-0-0----0--000--0----0-0-0----|
   .  ...  .    . . .    .  ...  .    . . .

|-----------------------------------------|
|-----------------------------------------|
|-----------------------------------------|
|-----------------------------------------|
|--8---8-8p5-5-5-5h7-7---7-7p4-4--4h7-----|
|-8-888-8---8-8-8---8-888-8---8-----------|
  . ... .   . . .   . ... .   .

Bridge II
C|-------------------------------------------------|
G|-------------------------------------------------|
C|-------------------------------------------------|
F|--7~----7-10~-----"10--7~-----7-10~--------------|
A|--8~----8-8~------"8---8~-----8-8~---------------|
D|--5~----5-8~------"8---5~-----5-8~---------------|

Chorus I   X2
C|----------------------|-------------------------|
G|-------------------X2-|----------------------X2-|
C|-10--9-10-7--7---7----|--12--10-12-9--9---9-----|
F|---00-0--0-00-000-0---|----00--0--0-00-000-0----|
A|----------------------|-------------------------|
D|----------------------|-------------------------|
     .. .  . .. ... .        ..  .  . .. ... .

Verse IV   X2
C|--------------------------|-------------------------|----------------------|
G|--------------------------|-------------------------|----------------------|
C|----------------------X2--|-------------------------|----------------------|
F|--------------------------|-------------------------|----------------------|
A|-12--10-12----------------|-10--8-10----------------|-8--7-8---------------|
D|---00--0--0-0-00-0-00-000-|---88-8--8-8-88-8-88-888-|--77-7--7-7-77-7-77-7-|
     ..  .      ..   ..         .. .  .   ..   ..        .. .  .   ..   ..

Interlude
C|----------------------------------------------|
G|----------------------------------------------|
C|----------------------------------------------|
F|--0~-----------8------------------------------|
A|--0~----------/8------------------------------|
D|--0~----------/8----------\\Dive--------------|

Breakdown
C|----------------------------------------------|
G|----------------------------------------------|
C|---------------------------------X2-----------|
F|----------------------------------------------|
A|--000-000--0--000---000--0-000----------------|
D|--000-000--0--000---000--0-000----------------|
    ... ...     ...   ...    ...

C|------------------------------------------------|
G|------------------------------------------------|
C|---------------------------------X2-------------|
F|------------------------------------------------|
A|--000-000--0~--000---000--0~-000----------------|
D|--000-000--0~--000---000--0~-000----------------|
    *** ***  *   ***   ***  *  ***

C|--------------|
G|--------------|
C|--------------|
F|--------------|
A|--000--000----|
D|--000--000----|
    ...  ...

Outro
C|------------------------------------------------------------------------|
G|------------------------------------------------------------------------|
C|------------------------------------------------------------------------|
F|------------------------------------------------------------------------|
A|---------------0-"0~-------------------0-"0----------------0-"0---------|
D|--0-0~---0-0~--0-"0~--0-0~-0-0~--0-0~--0-"0---0-0~---0-0~--0-"0--0-0~---|

C|------------------------------------------------------------------------|
G|------------------------------------------------------------------------|
C|------------------------------------------------------------------------|
F|------------------------------------------------------------------------|
A|---------------0-"0~-------------0-"0---------------------0-"0----------|
D|--0-0~---0-0~--0-"0~--0-0~-0-0~--0-"0---0-0~---0-0~--0-0~-0-"0--0-0~----|

C|----------------------|
G|----------------------|
C|----------------------|
F|----------------------|
A|---------0-"0~--0-----|
D|--0-0~---0-"0~--0-0~--|


-Note: The outro is sort of tricky and takes some getting used to. To do this, pick only
C String, but kinda hard and let it ring out where it says to. Also, where the
are noted, pick down on the chord before it, then touch your palm to the strings without 
a full mute and upstroke the second chord. Listen closely to the song to help.
Tap to rate this tab
 
# A B C D E F G H I J K L M N O P Q R S T U V W X Y Z