Song name
# A B C D E F G H I J K L M N O P Q R S T U V W X Y Z

Miss May I - Forgive And Forget tab

D|--------------------------------------------------------|
A|--------------------------------------------------------|
F|--------------------------------------------------------|
C|--------------------------------------------------------|
G|--------------------------------------------------------|
C|-----000000000000000000008888777744444444444444444444---|

D|--------------------------------------------------------|
A|--------------------------------------------------------|
F|--------------------------------------------------------|
C|--------------------------------------------------------|
G|--------------------------------555555------------------|
C|55555555555555555555111144441111-------0000888888-------|x3

D|--------------------------------------------------------|
A|--------------------------------------------------------|
F|--------------------------------------------------------|
C|--------------------------------------------------------|
G|--------------------------------------------------------|
C|0-0080704-0400040-5005040000000-------------------------|x4
    ** * *  * *** *  ** * * *** *
D|--------------------------------------------------------|
A|--------------------------------------------------------|
F|--------------------------------------------------------|
C|0~0000--0000--0000-0-0000-0000--------------------------|
G|0~0000--0000--0000-0-0000-0000--------------------------|
C|0~0000--0000--0000-0-0000-0000--------------------------|x4

D|--------------------------------------------------------|
A|--------------------------------------------------------|
F|--------------------------------------------------------|
C|--------------------------------------------------------|
G|--8-8--8-8--8-8----12-12--10-10--10-10------------------|
C|00-0-00-0-00-0-0-88--8--88--8--88--8--8-----------------|
  ** * ** * ** * * **  *  **  *  **  *  *                  x4
D|--------------------------------------------------------|
A|--------------------------------------------------------|
F|--------------------------------------------------------|
C|--------------------------------------------------------|
G|--8-8--8-8--8-8----12-12--7-7--7-7----------------------|
C|00-0-00-0-00-0-0-88--8--88-8-88-8-8---------------------|

D|--------------------------------------------------------|
A|--------------------------------------------------------|
F|--------------------------------------------------------|
C|0~~~8~10~~---0~00000000000----00000000000---------------|
G|0~~~8~10~~---0~00000000000----00000000000---------------|
C|0~~~8~10~~x4-0~000000000000-0~0000000000004h------------|
                 ***********    ***********
D|--------------------------------------------------------|
A|--------------------------------------------------------|
F|--------------------------------------------------------|
C|0~00000000000----0000000--------------------------------|
G|0~00000000000----0000000--------------------------------|
C|0~000000000000-0~0000000--------------------------------|
    ***********    *******
D|--------------------------------------------------------|
A|-----------------------------1~-------------------------|
F|----------------------------0~--------------------------|
C|0-0000---8888-9999-9999----0~---------------------------|
G|0-0000---8888-9999-9999---------------------------------|
C|0-0000---8888-9999-9999x4-------------------------------|
  * ****   **** **** ****
 Take me back, to how it used to be...
D|--------------------------------------------------------|
A|--------------------------------------------------------|
F|--------------------------------------------------------|
C|0~0~0~0~0~0~0~0~0~0~0~0~0~0~0~0~000000000000000000000000|
G|0~0~0~0~0~0~0~0~0~0~0~0~0~0~0~0~000000000000000000000000|
C|1~1~1~1~1~1~1~1~1~1~1~1~1~1~1~1~111111111111111111111111|
  * * * * * * * * * * * * * * * * ************************ x2
D|--------------------------------------------------------|
A|--------------------------------------------------------|
F|--------------------------------------------------------|
C|00-0000--00--00000--------------------------------------|
G|00-0000--00--00000--------------------------------------|
C|00-0000--00--00000--------------------------------------|
  ** ****  **  *****
D|--------------------------------------------------------|
A|--------------------------------------------------------|
F|--------------------------------------------------------|
C|10~~~~~--9~~~~~/12~~~~~----10~~~~~10-9~~~---------------|
G|x--------x-----/x----------x------x---------------------|
C|8~~~~~~-07~~~~~/10~~~~~----8~~~~~~8-07~~~---------------|

D|--------------------------------------------------------|
A|--------------------------------------------------------|
F|--------------------------------------------------------|
C|101010101010101010101010101010101010-000-101010-000-----|
G|x-x-x-x-x-x-x-x-x-x-x-x-x-x-x-x-x-x--000-x-x-x--000-----|
C|8-8-8-8-8-8-8-8-8-8-8-8-8-8-8-8-8-8--000-8-8-8--000-----|
                                       ***        ***
D|--------------------------------------------------------|
A|--------------------------------------------------------|
F|--------------------------------------------------------|
C|101010-000-1010--9/0----10~~~~~~~~~~~~~~~~~~~~~~~~~~~~~~|
G|x-x-x--000-x-x---x------x-------------------------------|
C|8-8-8--000-8-8-0-7/0x4--8~~~~~~~~~~~~~~~~~~~~~~~~~~~~~~~|
         ***
There ya go hope it helps. :D
Tap to rate this tab
 
# A B C D E F G H I J K L M N O P Q R S T U V W X Y Z