Miss May I - Monument tab

[Monument]
[Monument]
[Miss May I]

Tuning: Drop C (CGCFAD/Drop D 1 Step Down)
joshuaoliveira@hotmail.com

[Riff 1a] - [00:00] - [00:24]
- ------------------------------------------------------------------|
- ------------------------------------------------------------------|
- ------------------------------------------------------------------|
- -------------------------------------------------7-----7-----7----|
- -5-----5-----5---7-----7-----7---8-----8-----8--------------------|
- ---0000--0000--00--0000--0000--00--0000--0000--00--0000--0000--00-|
PM   ....  ....  ..  ....  ....  ..  ....  ....  ..  ....  ....  ..

- ----------------------------------------------------------------------|
- ----------------------------------------------------------------------|
- -----------------------------10--------------------101099779977----77-|
- -------------------------7-8---8-------------------------------1010---|
- -----------------------8----------------------------------------------|
- -8---8---0-8---8---888-----------5---5---0-8\7-7----------------------|
PM         .         ...                   .         ..................

- ------------------------------------------------------------------|
- ------------------------------------------------------------------|
- ------------------------------------------------------------------|
- -------------------------------------------------7-----7-----7----|
- -5-----5-----5---7-----7-----7---8-----8-----8--------------------|
- ---0000--0000--00--0000--0000--00--0000--0000--00--0000--0000--00-|
PM   ....  ....  ..  ....  ....  ..  ....  ....  ..  ....  ....  ..

- -----------------------------------------------------------------|
- -----------------------------------------------------------------|
- -----------------------------10----------------------------------|
- -------------------------7-8---8---------------------------------|
- -----------------------8---------------------------7-7-7-7-7-7-7-|
- -8---8---0-8---8---888-----------5---5---0-8\7-7---7-7-7-7-7-7-7-|
PM         .         ...                   .         .............


[Riff 1a] - [00:00] - [00:24]
- ------------------------------------------------------------------|
- ------------------------------------------------------------------|
- ------------------------------------------------------------------|
- -------------------------------------------------10----10----10---|
- -8-----8-----8---10----10----10--12----12----12-------------------|
- ---0000--0000--00--0000--0000--00--0000--0000--00--0000--0000--00-|
PM   ....  ....  ..  ....  ....  ..  ....  ....  ..  ....  ....  ..

- --------------------------------------------------------------------------|
- --------------------------------------------------------------------------|
- -----------------------------14------------------1414121210101212----1010-|
- ------------------------10-12--12--------------------------------1414-----|
- ----------------------12--------------------------------------------------|
- -8---8---0-8---8---888-----------5---5---0-8\7-7--------------------------|
PM         .         ...                   .       ........................

- ------------------------------------------------------------------|
- ------------------------------------------------------------------|
- ------------------------------------------------------------------|
- -------------------------------------------------10----10----10---|
- -8-----8-----8---10----10----10--12----12----12-------------------|
- ---0000--0000--00--0000--0000--00--0000--0000--00--0000--0000--00-|
PM   ....  ....  ..  ....  ....  ..  ....  ....  ..  ....  ....  ..

- -----------------------------------------------------------------|
- -----------------------------------------------------------------|
- -----------------------------14----------------------------------|
- ------------------------10-12--12--------------------------------|
- ----------------------12---------------------------7-7-7-7-7-7-7-|
- -8---8---0-8---8---888-----------5---5---0-8\7-7---7-7-7-7-7-7-7-|
PM         .         ...                   .         .............

----------------------------------------------------------------------------

[Riff 2] - [00:24] - [00:36-------------------------------| - [2x]
- --------------------------------------------------------|
- --------------------------------------------------------|
- --------------------------------------------------------|
- --------------------------------------------------------|
- -5/8---7----------7/10---8----------8/12---10-----------|
- -----0---0-0-0000------0---0-0-0000------0----0-0-0000--|
PM     .   ........      .   ........      .    ........

- ----------------------|
- ----------------------|
- ----------------------|
- ----------------------|
- -1212------1010-------|
- -----888888----777777-|
PM ....................

----------------------------------------------------------------------------

[Riff 3, Guitar 1 & 2] - [00:36] - [01:00-----------------------| - [2x]
- --------------------------------------------------------------|
- --------------------------------------------------------------|
- --------------------------------------------------------------|
- --------------------------------------------------------------|
- --------------------------------------------------------------|
- -8-----------7---5-------7---8---7---------------10--8---7----|
AP ...........................................................
-
- -------------------------------------------------------------|
- -------------------------------------------------------------|
- -------------------------------------------------------------|
- -------------------------------------------------------------|
- -------------------------------------------------------------|
- -12----------10--8-------10--12--11--------------15--14--11--|
AP ...........................................................


- ----------------------------------------------------------------------|
- ----------------------------------------------------------------------|
- ----------------------------------3----3--------3----3--------3-------|
- ---------------------------------/-\--/-\------/-\--/-\------/-\------|
- ---------------------------------0000-0000-----0000-0000-----0000-----|
- -12----------10--8-------10--12--0000-0000-----0000-0000-----0000-----|
AP ...............................
PM                                 ................................
-
- ----------------------------------------------------------------------|
- ----------------------------------------------------------------------|
- ----------------------------------3----3--------3----3--------3-------|
- ---------------------------------/-\--/-\------/-\--/-\------/-\------|
- ---------------------------------0000-0000-----0000-0000-----0000-----|
- -8-----------7---5-------7---8---0000-0000-----0000-0000-----0000-----|
AP ...............................
PM                                 ................................

every "-" is a 16th note. the notes marked in the / 3 \ are three notes
fit into the space of one. in this case they divide an 8th note into
three notes. so they are slightly faster than a 16th note, but they are
not 32nd notes :P i have to mark them like that or else they just look
like 16th note quads :P which they are not! just think like playing a
triplet (two 8th notes and a 16th) but instead of two short notes and
then one long one, its three notes in the same space, and then the
longer one. tricky shit, check my gp for a better way to see it :P

----------------------------------------------------------------------------

in this next section its the same idea just with a 4th note being
divided into three notes, twice in a row. making it faster than a 4th
note, but not an 8th note, you can see the 8th and 16th notes here.
listen to the song for the difference, you'll notice.

[Riff 4] - [01:00] - [01:11-------------------------------------| - [2x]
- --------------------------------------------------------------|
- --------------------------------------------------------------|
- ---------------------------------------------------3-----3----|
- -------------------------------------------------/---\-/---\--|
- -000-0-0-----000---000---000-0-0-----000-0-0-----0-0-0-0-0-0--|
- -000-0-0-----000---000---000-0-0-----000-0-0-----0-0-0-0-0-0--|
PM ...........................................................

----------------------------------------------------------------------------

[Riff 5] - [01:11] - [01:22]
- -------------------------------------------------------------|
- -------------------------------------------------------------|
- ---------------------------------------------------3-----3---|
- -------------------------------------------------/---\-/---\-|
- -000-0-0-----000---000---000-0-0-----000-0-0-----0-0-0-0-0-0-|
- -111-1-1-----111---111---111-1-1-----111-1-1-----1-1-1-1-1-1-|
PM ...........................................................

- ---------------------------------------------------------------------|
- ---------------------------------------------------------------------|
- ---------------------------------------------------3-----3-----------|
- -------------------------------------------------/---\-/---\---------|
- -000-0-0-----000---000---000-0-0-----000-0-0-----0-0-0-0-0-0-0--0--0-|
- -111-1-1-----111---111---111-1-1-----111-1-1-----1-1-1-1-1-1-1--1--1-|
PM ...................................................................

----------------------------------------------------------------------------

[Riff 6, Guitar 1 & 2] - [01:22] - [01:46]
- ------------------------------------------------------------------|
- ------------------------------------------------------------------|
- ------------------------------------------------------------------|
- -0-0-0-0-0-0-0-0-0-0-0-0-0-0-0-0-0-0-0-0-0-0-0-0-0-0-0-0-0-0-0-0--|
- -0-0-0-0-0-0-0-0-0-0-0-0-0-0-0-0-0-0-0-0-0-0-0-0-0-0-0-0-0-0-0-0--|
- -0-0-0-0-0-0-0-0-0-0-0-0-0-0-0-0-0-0-0-0-0-0-0-0-0-0-0-0-0-0-0-0--|
-
- ------------------------------------------------------------------|
- ------------------------------------------------------------------|
- -7-7-7-7-7-7-7-109-9-9-9-9-9-9-1210101010101010141212121214141414-|
- -x-x-x-x-x-x-x-x-x-x-x-x-x-x-x-x-x-x-x-x-x-x-x-x-x-x-x-x-x-x-x-x--|
- -5-5-5-5-5-5-5-8-7-7-7-7-7-7-7-108-8-8-8-8-8-8-121010101012121212-|
- ------------------------------------------------------------------|


- ------------------------------------------------------------------|
- ------------------------------------------------------------------|
- ------------------------------------------------------------------|
- -8-8-8-8-8-8-8-8-8-8-8-8-8-8-8-8-10101010101010101010101010101010-|
- -8-8-8-8-8-8-8-8-8-8-8-8-8-8-8-8-10101010101010101010101010101010-|
- -8-8-8-8-8-8-8-8-8-8-8-8-8-8-8-8-10101010101010101010101010101010-|
-
- ------------------------------------------------------------------|
- ------------------------------------------------------------------|
- -151515151414141412121212101010101414141412121212101010109-9-9-9--|
- -x-x-x-x-x-x-x-x-x-x-x-x-x-x-x-x-x-x-x-x-x-x-x-x-x-x-x-x-x-x-x-x--|
- -1313131312121212101010108-8-8-8-12121212101010108-8-8-8-7-7-7-7--|
- ------------------------------------------------------------------|


- ------------------------------------------------------------------|
- ------------------------------------------------------------------|
- ------------------------------------------------------------------|
- -0-0-0-0-0-0-0-0-0-------0---0---0-0-0-0-0-0-0-0-1010101010101010-|
- -0-0-0-0-0-0-0-0-0-------0---0---0-0-0-0-0-0-0-0-1010101010101010-|
- -0-0-0-0-0-0-0-0-0-------0---0---0-0-0-0-0-0-0-0-1010101010101010-|
-
- ------------------------------------------------------------------|
- ------------------------------------------------------------------|
- -7-7-7-7-7-7-7-7-9-9-9-9-9-9-9-1210101010101010141212121214141414-|
- -x-x-x-x-x-x-x-x-x-x-x-x-x-x-x-x-x-x-x-x-x-x-x-x-x-x-x-x-x-x-x-x--|
- -5-5-5-5-5-5-5-5-7-7-7-7-7-7-7-108-8-8-8-8-8-8-121010101012121212-|
- ------------------------------------------------------------------|


- ------------------------------------------------------------------|
- ------------------------------------------------------------------|
- ------------------------------------------------------------------|
- -8-8-8-8-8-8-8-8-8-8-8-8-8-8-8-8-10101010101010101010101010101010-|
- -8-8-8-8-8-8-8-8-8-8-8-8-8-8-8-8-10101010101010101010101010101010-|
- -8-8-8-8-8-8-8-8-8-8-8-8-8-8-8-8-10101010101010101010101010101010-|
-
- ------------------------------------------------------------------|
- ------------------------------------------------------------------|
- -151515151414141412121212101010101414141412121212101010109-9-9-9--|
- -x-x-x-x-x-x-x-x-x-x-x-x-x-x-x-x-x-x-x-x-x-x-x-x-x-x-x-x-x-x-x-x--|
- -1313131312121212101010108-8-8-8-12121212101010108-8-8-8-7-7-7-7--|
- ------------------------------------------------------------------|

----------------------------------------------------------------------------

[Riff 7] - [01:46] - [01:58------------------------------------------| - [2x]
- -------------------------------------------------------------------|
- -------------------------------------------------------------------|
- -------------------------------------------------------------------|
- ----------------------------------7-----7-----7\--5-----5-----5----|
- -5-----5--7/8\7-4-5-----5---------4-----4-----4\--1-----1-----1----|
- ---0000-00----------0000--000000004-44444-----4\--1-11111-----1----|
PM   .... ..          ....  ........  ....            ....

----------------------------------------------------------------------------

[Riff 8, Guitar 1 & 2] - [01:58] - [02:10]
- -----------------------------------------------------------------|
- -----------------------------------------------------------------|
- -----------------------------------------------------------------|
- -7-7-7-7-------------------7-7---7-7-7-7-------------------7-7-7-|
- -5-5-5-5-------------------5-5---5-5-5-5-------------------5-5-5-|
- -0-0-0-0-------------------0-0---0-0-0-0-------------------0-0-0-|
-
- -----------------------------------------------------------------|
- -----------------------------------------------------------------|
- -----------------------------------------------------------------|
- ---------------------------------------------------7755335533----|
- -------------------88775577553/5-----------------------------3/5-|
- -0-00000-0000000000--------------0-00000-0000000000--------------|
PM   ....  ....................      ....  ....................


- ------------------------------------------------------------------|
- ------------------------------------------------------------------|
- ------------------------------------------------------------------|
- ------------------------------------------------------------------|
- -------------------88775577553/5-11111111113311330000000033333333-|
- -0-00000-0000000000-----------------------------------------------|
PM   ....  ....................    ................................
-
- ------------------------------------------------------------------|
- ------------------------------------------------------------------|
- ------------------------------------------------------------------|
- -7-7-7-7-------------------7-7---7-7-7-7-----------------7-7-7-7--|
- -5-5-5-5-------------------5-5---5-5-5-5-----------------5-5-5-5--|
- -0-0-0-0-------------------0-0---0-0-0-0-----------------0-0-0-0--|

----------------------------------------------------------------------------

[Riff 3, Guitar 1 & 2] - [02:10] - [02:34] - [2x]
[Riff 6, Guitar 1 & 2] - [02:34] - [02:58]

[Riff 9] - [02:58] - [03:11]
- -----------------------------------------|
- -----------------------------------------|
- -----------------------------------------|
- -0~--------------0-----------------------|
- -0~--------------0-----------------------|
- -0~--------------0---------------0v------|

----------------------------------------------------------------------------

[Riff 10] - [03:11] - [03:41]
- ----------------------------------------------------------------|
- ----------------------------------------------------------------|
- ----------------------------------------------------------------|
- ----------------------------------------------------------------|
- -0---0---0---0---0-------0-0-0-0--------------------------------|
- -1---1---1---1---1-------1-1-1-1-------------------------0v-----|
PM ...............................

- ----------------------------------------------------------------|
- ----------------------------------------------------------------|
- ----------------------------------------------------------------|
- ----------------------------------------------------------------|
- -0---0---0---0---0-------0-0-0-0--------------------------------|
- -1---1---1---1---1-------1-1-1-1-------------------------0v-----|
PM ...............................


- ----------------------------------------------------------------|
- ----------------------------------------------------------------|
- ----------------------------------------------------------------|
- ----------------------------------------------------------------|
- -0---0---0---0---0-------0-0-0-0--------------------------------|
- -1---1---1---1---1-------1-1-1-1-------------------------0v-----|
PM ...............................


- ----------------------------------------------------------------|
- ----------------------------------------------------------------|
- ----------------------------------------------------------------|
- ----------------------------------------------------------------|
- -0---0---0---0---0-------0-0-0-0--------------------------------|
- -1---1---1---1---1-------1-1-1-1--------------------------------|
PM ...............................

----------------------------------------------------------------------------

[Symbols]

PM... Palm Mute notes with (...) under them
/     Slide Up
\     Slide Down
/3\   Thirds (explained above)
x     Dead Note
AP... Alternate Pick notes with (...) under them
v     Whammy Bar Down
~     Let Ring

:)
Tap to rate this tab
 
# A B C D E F G H I J K L M N O P Q R S T U V W X Y Z