Guitaretab - guitar tabs
Song name
# A B C D E F G H I J K L M N O P Q R S T U V W X Y Z

Miss May I - Relentless Chaos tab

[Relentless Chaos]
[Monument]
[Miss May I]

Tuning: Drop C (CGCFAD/Drop D 1 Step Down)
joshuaoliveira@hotmail.com

[Riff 1a] - [00:04] - [00:40--------------------------------------------| - [4x]
- ----------------------------------------------------------------------|
- -10-----8---10---6-----6-------6---10-----8---10---6-----6-------6----|
- ----------------------------------------------------------------------|
- ----0-0---0----0---0-0---0-0-0---0----0-0---0----0---0-0---0-0-0---0--|
- ----------------------------------------------------------------------|
- ----------------------------------------------------------------------|
PM    ...   .    .   ...   .....   .    ...   .    .   ...   .....   .

- -----------------------------------------------------------------|
- -----------------------------------------------------------------|
- -9-----7---9---5-----5-------5---9-----7---9---5-----5-------5---|
- ---7-7---7---7---7-7---7-7-7---7---7-7---7---7---7-7---7-7-7---7-|
- -----------------------------------------------------------------|
- -----------------------------------------------------------------|
PM   ...   .   .   ...   .....   .   ...   .   .   ...   .....   .

[Riff 1b] - [00:04] - [00:40--------------------------------------------| - [4x]
- ----------------------------------------------------------------------|
- ----------------------------------------------------------------------|
- -10-----9---10---7-----7-------7---10-----9---10---7-----7-------7----|
- ----------------------------------------------------------------------|
- ----------------------------------------------------------------------|
- ----0-0---0----0---0-0---0-0-0---0----0-0---0----0---0-0---0-0-0---0--|
PM    ...   .    .   ...   .....   .    ...   .    .   ...   .....   .

- -----------------------------------------------------------------------|
- -----------------------------------------------------------------------|
- -12-----10---12---9-----9-------9---12-----10---12---9-----9-------9---|
- -----------------------------------------------------------------------|
- ----0-0----0----0---0-0---0-0-0---0----0-0----0----0---0-0---0-0-0---0-|
- -----------------------------------------------------------------------|
PM    ...    .    .   ...   .....   .    ...    .    .   ...   .....   .

----------------------------------------------------------------------------

[Riff 2a] - [00:40] - [00:58-------------------------------------------| - [2x]
- ---------------------------------------------------------------------|
- ---------------------------------------------------------------------|
- ---------------------------------------------------------------------|
- -7-----7-----7-------------------------------------------------------|
- -----------------10-----10-----10---8-----8-----8---7-----7-----7----|
- ---0-0---0-0---0----0-0----0-0----0---0-0---0-0---0---0-0---0-0---0--|
PM   ...   ...   .    ...    ...    .   ...   ...   .   ...   ...   .

- --------------------------------------------------------------------|
- --------------------------------------------------------------------|
- --------------------------------------------------------------------|
- -7-----7-----7------------------------------------------------------|
- -----------------10-----10-----10---8-----8-----8---7-----7-----7---|
- ---8-8---8-8---8----8-8----8-8----8---8-8---8-8---8---8-8---8-8---8-|
PM   ...   ...   .    ...    ...    .   ...   ...   .   ...   ...   .

[Riff 2b] - [00:49] - [00:58----------------------------------------------| - [2x]
- ------------------------------------------------------------------------|
- ------------------------------------------------------------------------|
- ------------------------------------------------------------------------|
- -10-----10-----10---8-----8-----8---7-----7-----7-----------------------|
- ----------------------------------------------------10-----10-----10----|
- ----0-0----0-0----0---0-0---0-0---0---0-0---0-0---0----0-0----0-0----0--|
PM    ...    ...    .   ...   ...   .   ...   ...   .    ...    ...    .

- -----------------------------------------------------------------------|
- -----------------------------------------------------------------------|
- -----------------------------------------------------------------------|
- -10-----10-----10---8-----8-----8---7-----7-----7----------------------|
- ----------------------------------------------------10-----10-----10---|
- ----8-8----8-8----8---8-8---8-8---8---8-8---8-8---8----8-8----8-8----8-|
PM    ...    ...    .   ...   ...   .   ...   ...   .    ...    ...    .

----------------------------------------------------------------------------

[Riff 3, Guitar 1 & 2] - [00:58] - [01:02]
- -----------------------------------------------------------------|
- -----------------------------------------------------------------|
- -----------------------------------------------------------------|
- -----------------------------------------------------------------|
- -----5-------5---5p0---0---0---0h1---1-------1---1/3---3---------|
- -0-0---0-0-0---0-----0---0---0-----0---0-0-0---0-----0---0-3-1-0-|
PM ...   .....   .     .   .   .     .   .....   .     .   .
-
- ------------------------------------------------------------------|
- ------------------------------------------------------------------|
- ------------------------------------------------------------------|
- -0---------------0---------------\\\\\\\\\\\\\\\\\\\\\\\\\\-------|
- -0---------------0---------------\\\\\\\\\\\\\\\\\\\\\\\\\\-------|
- -0---------------0---------------\\\\\\\\\\\\\\\\\\\\\\\\\\-3-1-0-|

----------------------------------------------------------------------------

[Riff 4] - [01:02] - [01:11-----------------------------------------| - [2x]
- ------------------------------------------------------------------|
- ------------------------------------------------------------------|
- ------------------------------------------------------------------|
- ------------------------------------------------------------------|
- -----5-------5---5p0---0---0---0h1---1-------1---1/3---3----------|
- -------0-0-0---0-----0---0---0-----0---0-0-0---0-----0---0-3-1-0--|
PM       .....   .     .   .   .     .   .....   .     .   .

----------------------------------------------------------------------------

[Riff 5, Guitar 1 & 2] - [01:11] - [01:20]
- -----------------------------------------------------------------|
- -----------------------------------------------------------------|
- -----------------------------------------------------------------|
- -----------------------------------------------------------------|
- -----5-------5---5p0---0---0---0h1---1-------1---1/3---3---3h7p5-|
- -------0-0-0---0-----0---0---0-----0---0-0-0---0-----0---0-------|
PM       .....   .     .   .   .     .   .....   .     .   .
-
- ------------------------------------------------------------------|
- ------------------------------------------------------------------|
- ------------------------------------------------------------------|
- ------------------------------------------------------------------|
- -----8-------8---8p5---5---5---5h7---7-------5---5h7---7---7/10-8-|
- -------0-0-0---0-----0---0---0-----0---0-0-0---0-----0---0--------|
PM       .....   .     .   .   .     .   .....   .     .   .


- -----------------------------------------------------------------|
- -----------------------------------------------------------------|
- -----------------------------------------------------------------|
- ---------------------------------------------------------------0-|
- -----5-------5---5p0---0---0---0h1---1-------1---1/3---3---3h7-0-|
- -------0-0-0---0-----0---0---0-----0---0-0-0---0-----0---0-----0-|
PM       .....   .     .   .   .     .   .....   .     .   .
-
- ------------------------------------------------------------------|
- ------------------------------------------------------------------|
- ------------------------------------------------------------------|
- ----------------------------------------------------------------0-|
- -----8-------8---8p5---5---5---5h7---7-------5---5h7---7---7/10-0-|
- -------0-0-0---0-----0---0---0-----0---0-0-0---0-----0---0------0-|
PM       .....   .     .   .   .     .   .....   .     .   .

----------------------------------------------------------------------------

[Riff 6] - [01:20] - [01:29-----------------------------------------| - [2x]
- ------------------------------------------------------------------|
- ------------------------------------------------------------------|
- ------------------------------------------------------------------|
- ---------------------------------------------------------------0--|
- -----0-0-0-0-------------0-0-0-0-----0-0-0-0-------------1-----0--|
- -----0-0-0-0-------------0-0-0-0-----0-0-0-0---------------3-1-0--|
PM     .......................................

----------------------------------------------------------------------------

[Riff 7a] - [01:29] - [01:38----------------------------------------| - [2x]
- ------------------------------------------------------------------|
- ------------------------------------------------------------------|
- ------------------------------------------------------------------|
- ---------------------------------------------------------------0--|
- -----0-0-0-0-------------0-0-0-0-----0-0-0-0-------------0-0-0-0--|
- -----0-0-0-0-------------0-0-0-0-----0-0-0-0-------------0-0-0-0--|
PM     .......................................

[Riff 7b] - [01:29] - [01:39]
- ----------------------------------------------------------------------|
- -----10-------10---10p6---6---6---6/8---8-------6---6h8---8---8/11-10-|
- ----------------------------------------------------------------------|
- -0-0----0-0-0----0------0---0---0-----0---0-0-0---0-----0---0---------|
- ----------------------------------------------------------------------|
- ----------------------------------------------------------------------|
PM ...    .....    .      .   .   .     .   .....   .     .   .

- -------------------------------------------------------------------|
- -----10-------10---10p6---6---6---6/8---8-------8---8\5---5---5/6~-|
- -------------------------------------------------------------------|
- --------0-0-0----0------0---0---0-----0---0-0-0---0-----0---0------|
- -------------------------------------------------------------------|
- -------------------------------------------------------------------|
PM        .....    .      .   .   .     .   .....   .     .   .

----------------------------------------------------------------------------

[Riff 8, Guitar 1 & 2] - [01:38] - [01:40]
- -----------------------------------|
- -----------------------------------|
- -----------------------------------|
- -----------------/7----5-----------|
- -----------------------------8---\-|
- -----------------------------------|
-
- -----------------------------------|
- -----------------------------------|
- -----------------------------------|
- -----------------/10---8-----7---\-|
- -----------------------------------|
- -----------------------------------|

----------------------------------------------------------------------------
[ Tab from: http://www.guitaretab.com/m/miss-may-i/263089.html ]
[Riff 9a] - [01:40] - [01:49]
- ------------------------------------------------------------------------|
- ------------------------------------------------------------------------|
- ------------------------------------------------------------------------|
- ------------------------------------------------------------------------|
- -----12-------12---12p8---8---8---8h10---10-------10---10p7---7---7---7-|
- --------0-0-0----0------0---0---0------0----0-0-0----0------0---0---0---|
PM        .....    .      .   .   .      .    .....    .      .   .   .

- ------------------------------------------------------------------------|
- ------------------------------------------------------------------------|
- ------------------------------------------------------------------------|
- ------------------------------------------------------------------------|
- -8---8-------8---8-----8---8-----10---10-------8---8h10---10---10/13-12-|
- ---8---8-8-8---8---8-8---8---8-8----8----8-8-8---8------8----8----------|
PM   .   .....   .   ...   .   ...    .    .....   .      .    .

[Riff 9b] - [01:40] - [01:49]
- -------------------------------------------------------------|
- -------------------------------------------------------------|
- -------------------------------------------------------------|
- -------------------------------------------------------------|
- -----8-------8---8p5---5---5---5h7-------7---7p4---4---4---4-|
- -------0-0-0---0-----0---0---0-----0-0-0---0-----0---0---0---|
PM       .....   .     .   .   .     .....   .     .   .   .


- ------------------------------------------------------------------|
- ------------------------------------------------------------------|
- ------------------------------------------------------------------|
- ------------------------------------------------------------------|
- -5---5-------5---5-----5---5-----7---7-------5---5h7---7---7/10-8-|
- ---8---8-8-8---8---8-8---8---8-8---8---8-8-8---8-----8---8--------|
PM   .   .....   .   ...   .   ...   .   .....   .     .   .

----------------------------------------------------------------------------

[Riff 10a] - [01:49] - [01:58]
- --------------------------------------------------------------------------|
- --------------------------------------------------------------------------|
- --------------------------------------------------------------------------|
- --------------------------------------------------------------------------|
- ----12-------12---12p8---8---8---8h13---13-------13---13p10---10---10--10-|
- -------0-0-0----0------0---0---0------0----0-0-0----0-------0----0----0---|
PM       .....    .      .   .   .      .    .....    .       .    .    .

- -------------------------------------------------------------------------|
- -------------------------------------------------------------------------|
- -------------------------------------------------------------------------|
- -------------------------------------------------------------------------|
- -12---12-------12---12p8---8---8-----10---10-------10---10p7---7---7---7-|
- ----8----8-8-8----8------8---8---8-8----7----7-7-7----7------7---7---7---|
PM    .    .....    .      .   .   ...    .    .....    .      .   .   .

[Riff 10b] - [01:49] - [01:58]
- ---------------------------------------------------------------------|
- ---------------------------------------------------------------------|
- ---------------------------------------------------------------------|
- ---------------------------------------------------------------------|
- -----8-------8---8p5---5---5---5h10---10-------10---10p7---7---7---7-|
- -------0-0-0---0-----0---0---0------0----0-0-0----0------0---0---0---|
PM       .....   .     .   .   .      .    .....    .      .   .   .

- -----------------------------------------------------------------|
- -----------------------------------------------------------------|
- -----------------------------------------------------------------|
- -----------------------------------------------------------------|
- -8---8-------8---8p5---5---5-----7---7-------7---7p4---4---4---4-|
- ---8---8-8-8---8-----8---8---8-8---7---7-7-7---7-----7---7---7---|
PM   .   .....   .     .   .   ...   .   .....   .     .   .   .

----------------------------------------------------------------------------

[Riff 11, Guitar 1 & 2] - [01:58] - [02:07]
- -----------------------------------------------------------------|
- -----------------------------------------------------------------|
- -----------------------------------------------------------------|
- -7~--------------------------8~--8~--------------------------7~--|
- -8~--------------------------8~--8~--------------------------8~--|
- -7~--------------------------8~--8~--------------------------7~--|
-
- -----------------------------------------------------------------|
- -----------------------------------------------------------------|
- -14-------10----------------/15--15------10-----------------/14--|
- -x--------x------------------x---x-------x-------------------x---|
- -12-------8-----------------/13--13------8------------------/12--|
- -----------------------------------------------------------------|

- -----------------------------------------------------------------|
- -----------------------------------------------------------------|
- -----------------------------------------------------------------|
- -7~--------------------------8~--8~------------------------------|
- -8~--------------------------8~--8~------------------------------|
- -7~--------------------------8~--8~------------------------------|
-
- -----------------------------------------------------------------|
- -----------------------------------------------------------------|
- -14-------10----------------/15--15---------/17--17--------------|
- -x--------x------------------x---x-----------x---x---------------|
- -12-------8-----------------/13--13---------/15--15--------------|
- -----------------------------------------------------------------|

----------------------------------------------------------------------------

[Riff 1a + 1b] - [02:07] - [02:25] - [2x]

[Riff 12] - [02:25] - [02:42]
- -----------------------------------------------------------------------|
- -----------------------------------------------------------------------|
- -----------------------------------------------------------------------|
- -----------------------------------------------------------------------|
- -12-----10---12---------------------12-----10---12---------------------|
- ----0-0----0----0-0-0-0-0-0-0-0-0-0----0-0----0----0-0-0-0-0-0-0-0-0-0-|
PM    ...    .    .   ...   .   .   .    ...    .    .   ...   .   .   .

- -------------------------------------------------------------------|
- -------------------------------------------------------------------|
- -------------------------------------------------------------------|
- -------------------------------------------------------------------|
- -10-----8---10---------------------8-----7---8---------------------|
- ----8-8---8----8-8-8-8-8-8-8-8-8-8---7-7---7---7-7-7-7-7-7-7-7-7-7-|
PM    ...   .    .   ...   .   .   .   ...   .   .   ...   .   .   .

----------------------------------------------------------------------------

[Riff 13, Guitar 1 & 2] - [02:42] - [02:47]
- ---------------------------------5~------------------------------|
- ---------------------------------5~------------------------------|
- ---------------------------------7~------------------------------|
- -0~------------------------------8~------------------------------|
- -0~--------------------------------------------------------------|
- -0~------------------------------------------------------0v------|
-
- -----------------------------------------------------------------|
- -----------------------------------------------------------------|
- ---------------------------------10~-----------------------------|
- -0~------------------------------x-------------------------------|
- -0~------------------------------8~------------------------------|
- -0~------------------------------------------------------0v------|

----------------------------------------------------------------------------

[Riff 14] - [02:47] - [03:05----------------------------------------| - [4x]
- ------------------------------------------------------------------|
- ------------------------------------------------------------------|
- ------------------------------------------------------------------|
- ------------------------------------------------------------------|
- -00000---00000-----0-----00000-----------00000-----0-----00000----|
- -00000---00000-----0-----00000-----------00000-----0-----00000----|
PM .............................................................

let ring 3rd and 4th time through

----------------------------------------------------------------------------

[Riff 15] - [03:05] - [03:25]
- -----------------------------------------------------------------|
- -----------------------------------------------------------------|
- ---L-------R-----------------------------------------------------|
- -----------------------------------------------------------------|
- -00000---00000-----------------------------------0-0-------------|
- -00000---00000-----------0-0-------------0-0-----0-0-----0-0-----|
PM .............                                   ...

- -----------------------------------------------------------------|
- -----------------------------------------------------------------|
- -----------------------------------------------------------------|
- -----------------------------------------------------------------|
- -----------------0-0-----------------------------0-0-------------|
- -0-0-----0-0-----0-0-----0-0-------------0-0-----0-0-----0-0v----|
PM                 ...                             ...

- -----------------------------------------------------------------|
- -----------------------------------------------------------------|
- -----------------------------------------------------------------|
- -----------------------------------------------------------------|
- -----------------0-0-----------------------------0-0-------------|
- -0-0-----0-0-----0-0-----0-0-------------0-0-----0-0-----0-0-----|
PM                 ...                             ...

- -----------------------------------------------------------------|
- -----------------------------------------------------------------|
- -----------------------------------------------------------------|
- -----------------------------------------------------------------|
- -----------------0-0-----------------------------0-0-------------|
- -0-0-----0-0-----0-0-----0-0-------------0-0-----0-0-----0-0-----|
PM                 ...                             ...

the L and the R refer to which guitar plays which part in the
beginning. L is the left guitar, it comes out the left speaker :P
and so on loll i just dint wanna tab both guitars seperare just
for that little bit that they seperate lol

----------------------------------------------------------------------------

[Symbols]

PM... Palm Mute notes with (...) under them
\\\   Pick Slide Down
~     Let Ring
p     Pull Off
h     Hammer On
/     Slide Up
\     Slide Down
x     Dead Note
L     Left Guitar/Speaker only
R     Right Guitar/Speaker only
v     Whammy Bar Down

:)
Related for Relentless Chaos tab
Relentless Chaos chords by Miss May I