Song name
# A B C D E F G H I J K L M N O P Q R S T U V W X Y Z

Miss May I - Relentless Chaos tab

Key:
. Palm Mute
* Tremolo Mute
x Mute Fretboard
\ Slide Down
/ Slide Up
h Hammer On
p Pull Off
~ Sustain
" Upstroke/Pick Up

Chorus I

Guitar I      X4
D|----------------------|-------------------------|
A|-------------------X2-|----------------------X2-|
F|-10--9-10-7--7---7----|--12--10-12-9--9---9-----|
C|---00-0--0-00-000-0---|----00--0--0-00-000-0----|
G|----------------------|-------------------------|
C|----------------------|-------------------------|
     .. .  . .. ... .        ..  .  . .. ... .

Guitar II     X4
D|--------------------------|-------------------------|
A|-----------------------X2-|----------------------X2-|
F|-14--12-14-10--10---10----|---9--7-9-5--5---5-------|
C|---00--0--0--00--000--0---|----77-7-7-77-777-7------|
G|--------------------------|-------------------------|
C|--------------------------|-------------------------|
     ..  .  .  ..  ...  .        .. . . .. ... .

Verse I
D|-----------------------------------------|
A|-----------------------------------------|
F|-----------------------------------------|
C|-----------------------------------------|
G|-12--12--12-10--10--10-8--8--8-7--7--7---|
C|---00--00--0--00--00--0-00-00-0-00-00-0--|
     ..  ..  .  ..  ..  . .. .. . .. .. .

D|-----------------------------------------|
A|-----------------------------------------|
F|-----------------------------------------|
C|-----------------------------------------|
G|-12--12--12-10--10--10-8--8--8-7--7--7---|
C|---88--88--8--88--88--8-88-88-8-88-88-8--|
     ..  ..  .  ..  ..  . .. .. . .. .. .

D|-----------------------------------------------|
A|-----------------------------------------------|
F|-----------------------------------------------|
C|-----------------------------------------------|
G|-15--15--15-13--13--13-12--12--12-10--10--10---|
C|---00--00--0--00--00--0--00--00--0--00--00--0--|
     ..  ..  .  ..  ..  .  ..  ..  .  ..  ..  .

D|-----------------------------------------|
A|-----------------------------------------|
F|-----------------------------------------|
C|-----------------------------------------|
G|-12--12--12-10--10--10-8--8--8-7--7--7---|
C|---88--88--8--88--88--8-88-88-8-88-88-8--|
     ..  ..  .  ..  ..  . .. .. . .. .. .

Interlude

Guitar I
D|----------------------------------------|
A|----------------------------------------|
F|----------------------------------------|
C|----------------------------------3p2---|
G|---5---5-5p0-0-0-0h1-1---1-1h3-3--3p2---|
C|-00-000-0---0-0-0---0-000-0---0---3p2---|
   .. ... .   . . .   . ... .   .

Guitar II
D|----------------------------------------|
A|----------------------------------------|
F|----------------------------------------|
C|-0x---------0x--------------------------|
G|-0x---------0x--------------------------|
C|-0x---------0x--------pickslide\--------|


Verse II

Guitar I     X4
D|-----------------------------------------|
A|-----------------------------------------|
F|-----------------------------------------|
C|-0---------------------------------3p2---|
G|-0--5---5-5p0-0-0-0h1-1---1-1h3-3--3p2---|
C|-0-0-000-0---0-0-0---0-000-0---0---3p2---|
     . ... .   . . .   . ... .   .

Guitar II
D|-----------------------------------------|-------------------------------------------------|
A|--------------------------------------X2-|----------------------------------------------X2-|
F|-----------------------------------------|-------------------------------------------------|
C|-0---------------------------------3p2---|-------------------------------------------------|
G|-0--5---5-5p0-0-0-0h1-1---1-1h3-3--3p2---|--12---12-12p8-8-8-8h10-10---8-8p10-10-10h12-12~-|
C|-0-0-000-0---0-0-0---0-000-0---0---3p2---|-0--000--0----0-0-0----0--000-0----0--0---------|
     . ... .   . . .   . ... .   .           .  ...  .    . . .    .  ... .    .  . 

Chorus II
(Both Guitars play the same thing the first 2 times,
 then Guitar II comes in with something else as shown below)

Guitar I      X4                             Fill
D|-------------------------------------|     |-----------------|
A|-------------------------------------|     |-----------------|
F|-------------------------------------|     |-----------------|
C|-0~----0---------0~-----0------------|     |-8v~---/7--------|
G|-0~-00-0-0---000-0~-000-0----1-3p1---|     |----------10--8~-|
C|-0~-00-0-0---000-0~-000-0---0--3p1---|     |-----------------|
      ..   .   *** *  ***

Guitar II               
D|-------------------------------------|-------------------------------------------------------|
A|----------------------------------X2-|-------------------------------------------------------|
F|-------------------------------------|--14---14-14p10-10-10-10h12-12---10-10h12-12-12h14-14~-|
C|-0~----0---------0~-----0------------|-0--000--0-----0--0--0-----0--000--0-----0--0----------|
G|-0~-00-0-0---000-0~-000-0----1-3p1---|-------------------------------------------------------|
C|-0~-00-0-0---000-0~-000-0---0--3p1---|-------------------------------------------------------|
      ..   .   *** *  ***                .  ...  .     .  .  .     .  ...  .     .  .
                                                         Fill
D|-----------------------------------------------------| |----------|
A|-----------------------------------------------------| |----------|
F|--14---14-14p10-10-10-10h12-12---12-12p9-9-9h10-10v~-| |--/9-7----|
C|-0--000--0-----0--0--0-----0--000--0----0-0----------| |------10~-|
G|-----------------------------------------------------| |----------|
C|-----------------------------------------------------| |----------|
   .  ...  .     .  .  .     .  ...  .    . .

Verse III
D|---------------------------------------------|----------------------------------------------|
A|---------------------------------------------|----------------------------------------------|
F|---------------------------------------------|----------------------------------------------|
C|---------------------------------------------|----------------------------------------------|
G|--12---12-12p8-8-8-8h10-10---10-10p7-7-7-7h8-|--8---8-8--8--8-8h10-10---8-8h10-10-10h12-12~-|
C|-0--000--0----0-0-0----0--000--0----0-0-0----|-8-888-8-88-88------8--888-8----8--8----------|
   .  ...  .    . . .    .  ...  .    . . .      . ... . .. ..      .  ... .    .  .

D|---------------------------------------------|-----------------------------------------|
A|---------------------------------------------|-----------------------------------------|
F|---------------------------------------------|-----------------------------------------|
C|---------------------------------------------|-----------------------------------------|
G|--12---12-12p8-8-8-8h10-10---10-10p7-7-7-7h8-|--8---8-8p5-5-5-5h7-7---7-7p4-4--4h7-----|
C|-0--000--0----0-0-0----0--000--0----0-0-0----|-8-888-8---8-8-8---8-888-8---8-----------|
   .  ...  .    . . .    .  ...  .    . . .      . ... .   . . .   . ... .   .

Bridge II
D|-------------------------------------------------|
A|-------------------------------------------------|
F|-------------------------------------------------|
C|--7~----7-10~-----"10--7~-----7-10~--------------|
G|--8~----8-8~------"8---8~-----8-8~---------------|
C|--5~----5-8~------"8---5~-----5-8~---------------|

Chorus I   X2
D|----------------------|-------------------------|
A|-------------------X2-|----------------------X2-|
F|-10--9-10-7--7---7----|--12--10-12-9--9---9-----|
C|---00-0--0-00-000-0---|----00--0--0-00-000-0----|
G|----------------------|-------------------------|
C|----------------------|-------------------------|
     .. .  . .. ... .        ..  .  . .. ... .

Verse IV   X2
D|--------------------------|-------------------------|----------------------|
A|--------------------------|-------------------------|----------------------|
F|----------------------X2--|-------------------------|----------------------|
C|--------------------------|-------------------------|----------------------|
G|-12--10-12----------------|-10--8-10----------------|-8--7-8---------------|
C|---00--0--0-0-00-0-00-000-|---88-8--8-8-88-8-88-888-|--77-7--7-7-77-7-77-7-|
     ..  .      ..   ..         .. .  .   ..   ..        .. .  .   ..   ..

Interlude

Guitar I
D|------------------------------------------------------------------|
A|------------------------------------------------------------------|
F|------------------------------------------------------------------|
C|--0~-------------------------8~-----------------------------------|
G|--0~------------------------/8~------------------------13\\-------|
C|--0~------------------------/8~------------------------13\\Dive---|

Guitar II
D|------------------------------------------------------------------|
A|------------------------------------------------------------------|
F|------------------------------------------------------------------|
C|--101010101010101010101010--151515151515151515151515--------------|
G|--X-X-X-X-X-X-X-X-X-X-X-X---X-X-X-X-X-X-X-X-X-X-X-X----13\\-------|
C|--8-8-8-8-8-8-8-8-8-8-8-8---131313131313131313131313---13\\Dive---|

Breakdown
D|----------------------------------------------|
A|----------------------------------------------|
F|---------------------------------X2-----------|
C|----------------------------------------------|
G|--000-000--0--000---000--0-000----------------|
C|--000-000--0--000---000--0-000----------------|
    ... ...     ...   ...    ...

D|------------------------------------------------|
A|------------------------------------------------|
F|---------------------------------X2-------------|
C|------------------------------------------------|
G|--000-000--0~--000---000--0~-000----------------|
C|--000-000--0~--000---000--0~-000----------------|
    *** ***  *   ***   ***  *  ***

D|--------------|
A|--------------|
F|--------------|
C|--------------|
G|--000--000----|
C|--000--000----|
    ...  ...

Outro
D|------------------------------------------------------------------------|
A|------------------------------------------------------------------------|
F|------------------------------------------------------------------------|
C|------------------------------------------------------------------------|
G|---------------0-"0~-------------------0-"0----------------0-"0---------|
C|--0-0~---0-0~--0-"0~--0-0~-0-0~--0-0~--0-"0---0-0~---0-0~--0-"0--0-0~---|

D|------------------------------------------------------------------------|
A|------------------------------------------------------------------------|
F|------------------------------------------------------------------------|
C|------------------------------------------------------------------------|
G|---------------0-"0~-------------0-"0---------------------0-"0----------|
C|--0-0~---0-0~--0-"0~--0-0~-0-0~--0-"0---0-0~---0-0~--0-0~-0-"0--0-0~----|

D|----------------------|
A|----------------------|
F|----------------------|
C|----------------------|
G|---------0-"0~--0-----|
C|--0-0~---0-"0~--0-0~--|

Tap to rate this tab
# A B C D E F G H I J K L M N O P Q R S T U V W X Y Z