Song name
# A B C D E F G H I J K L M N O P Q R S T U V W X Y Z

Miss May I - Day By Day tab

Played the other tab on here and made a few of my own changes.  It sounded more clean
during the rythm parts and a little deeper on the intro, so I decided to make my own tab.
Email me or send me a message on here if you have anything to add (thisd00d@aim.com)  
Please rate and comment!

Credit goes to GeetarManiac.  Wrote the first tab which I worked off of.  Some just is
changed a little but most is left alone.

Tuned in Drop C (CGCFAD)

. - palm mute
h - hammer on
p - pull off
~ - let ring
" - tremolo pick
b - bend

Guitar 1
D|--------------------------------------------------------------------|
A|--------------------------------------------------------------------|
F|--------------------------------------------------------------------|
C|------5-----6-----8-----6-----5h6-----6-----5-----1-----5-----3h5---|
G|--------------------------------------------------------------------|
C|--0-0---0-0---0-0---0-0---0-0-----0-0---0-0---0-0---0-0---0-0-------|
    . .   . .   . .    . .   . .     . .   . .   . .   . .   . .        X2


   Guitar 2
D|-----------------------------------|
A|-----------------------------------|
F|-----------------------------------|
C|--0-0-0-0--0-0-0--8-0-0-7-0-0-3h5--|
G|--0-0-0-0--0-0-0--8-0-0-7-0-0-3h5--|
C|--0-0-0-0--0-0-0--8-0-0-7-0-0-3h5--| x2
    . . . .  . . .    . .   . .
1st Verse

Guitars 1&2
D|-----------------------------------|
A|-----------------------------------|
F|-----------------------------------|
C|--0-0-0-0--0-0-0--8-0-0-7-0-0-3h5--|
G|--0-0-0-0--0-0-0--8-0-0-7-0-0-3h5--|
C|--0-0-0-0--0-0-0--8-0-0-7-0-0-3h5--| x8
    . . . .  . . .    . .   . .

Chorus

 Guitar 1&2
D|-----------------------------------------|
A|-----------------------------------------|
F|-----------------------------------------|
C|--2--2-2-2--5--5-5-5--10-101010-7--7-7-7-|
G|--2--2-2-2--5--5-5-5--10-101010-7--7-7-7-|
C|--0--0-0-0--3--3-3-3--8--8-8-8--7--7-7-7-|X4


Guitar 1
D|--------------------------------------------------------------------|
A|--------------------------------------------------------------------|
F|--------------------------------------------------------------------|
C|------5-----6-----8-----6-----5h6-----6-----5-----1-----5-----3h5---|
G|--------------------------------------------------------------------|
C|--0-0---0-0---0-0---0-0---0-0-----0-0---0-0---0-0---0-0---0-0-------|
    . .   . .   . .    . .   . .     . .   . .   . .   . .   . .        X2


  Guitar 2
D|-----------------------------------|
A|-----------------------------------|
F|-----------------------------------|
C|--0-0-0-0--0-0-0--8-0-0-7-0-0-3h5--|
G|--0-0-0-0--0-0-0--8-0-0-7-0-0-3h5--|
C|--0-0-0-0--0-0-0--8-0-0-7-0-0-3h5--| x2
    . . . .  . . .    . .   . .

Guitars 1&2
D|-----------------------------------|
A|-----------------------------------|
F|-----------------------------------|
C|--0-0-0-0--0-0-0--8-0-0-7-0-0-3h5--|
G|--0-0-0-0--0-0-0--8-0-0-7-0-0-3h5--|
C|--0-0-0-0--0-0-0--8-0-0-7-0-0-3h5--| x8
    . . . .  . . .    . .   . .

Chorus again..

 Guitar 1&2
D|-----------------------------------------|
A|-----------------------------------------|
F|-----------------------------------------|
C|--2--2-2-2--5--5-5-5--10-101010-7--7-7-7-|
G|--2--2-2-2--5--5-5-5--10-101010-7--7-7-7-|
C|--0--0-0-0--3--3-3-3--8--8-8-8--7--7-7-7-|X4

Breakdown
  Guitar 1
D|---------||-------------------------------------------------------------|
A|---------||-------------------------------------------------------------|
F|---------||-------------------------------------------------------------|
C|--7~-----||--000~-000~-000~-000~-00000000-000~-000~-000~-000~-0~-0~-0~--|
G|--7~-----||--000~-000~-000~-000~-00000000-000~-000~-000~-000~-0~-0~-0~--|
C|--7~-----||--000~-000~-000~-000~-00000000-000~-000~-000~-000~-1~-1~-1~--|
               ...  ...  ...  ...  ........ ...  ...  ...  ...  .  .  .

Guitar 2
D|---------|
A|---------|
F|---------|
C|--7~-----|
G|--7~-----|
C|--7~-----| let ring mad long


   Guitar 1
D|-------------------------------------------------|
A|-------------------------------------------------|
F|------------------------------------------14b"---|
C|--12"----------13"----------17"16"17"16"---------|
G|-------------------------------------------------|
C|-------------------------------------------------| x2

  Guitar 2
D|-----------------------------------------------------|
A|-----------------------------------------------------|
F|-----------------------------------------------------|
C|--000-000-000-000-00000000-000-000-000-000-0~-0~-0~--|
G|--000-000-000-000-00000000-000-000-000-000-0~-0~-0~--|
C|--000-000-000-000-00000000-000-000-000-000-1~-1~-1~--| x4
    ... ... ... ... ........ ... ... ... ... .  .  .

Post-Breakdown/Pre-Chorus

        Guitar  1                    Guitar 2
D|--------------------|      D|--------------------|
A|--------------------|      A|--------------------|
F|--------------------| then F|----------10--------|
C|------7---10p7---7--|      C|------7------7---7--|
G|--------------------|      G|--------------------|
C|--0-0---0------0----|      C|--0-0---0------0----|
    . .   .      .               . .   .      .
    (Play all together if your playing by yourself..duh)

Chorus one last time..
 Guitar 1&2
D|-----------------------------------------|
A|-----------------------------------------|
F|-----------------------------------------|
C|--2--2-2-2--5--5-5-5--10-101010-7--7-7-7-|
G|--2--2-2-2--5--5-5-5--10-101010-7--7-7-7-|
C|--0--0-0-0--3--3-3-3--8--8-8-8--7--7-7-7-|X4

Outro!

Guitar 1
D|--------------------------------------------------------------------|
A|--------------------------------------------------------------------|
F|--------------------------------------------------------------------|
C|------5-----6-----8-----6-----5h6-----6-----5-----1-----5-----3h5---|
G|--------------------------------------------------------------------|
C|--0-0---0-0---0-0---0-0---0-0-----0-0---0-0---0-0---0-0---0-0-------|
    . .   . .   . .    . .   . .     . .   . .   . .   . .   . .        X2


   Guitar 2
D|-----------------------------------|
A|-----------------------------------|
F|-----------------------------------|
C|--0-0-0-0--0-0-0--8-0-0-7-0-0-3h5--|
G|--0-0-0-0--0-0-0--8-0-0-7-0-0-3h5--|
C|--0-0-0-0--0-0-0--8-0-0-7-0-0-3h5--| x2
    . . . .  . . .    . .   . .

Guitar 1 &2

D----------|
A----------|
F----------|    (let ring until end of the song..let it fade out)
C--0~~~~~~-|
G--0~~~~~~-|
C----------|
Tap to rate this tab
 
# A B C D E F G H I J K L M N O P Q R S T U V W X Y Z