Song name
# A B C D E F G H I J K L M N O P Q R S T U V W X Y Z

Miss May I - Live This Life tab

Haven't seen a tab for this song anywhere so I went ahead and figured it up. 
and I will do only the lead for now haven't haven't got to far in the whole song but its a start.

Tuning is Drop C

|------------------------------------------------------------------| \
|------------------------------------------------------------------| | 
|-14-----------------14-----------------14-------------------------| |
|----15-12-15-12-15-----15-12-15-12-15-----15-12-15----------------| |
|------------------------------------------------------------------| |
|------------------------------------------------------------------| | 
                                                                     /
                      Play four times mostly Palm muted, then twice open.
                                                                     \
|------------------------------------------------------------------| |
|------------------------------------------------------------------| |
|-----------------------15-10----15-10----15-10h17-----------------| |
|-----------------------------12-------12--------------------------| |
|-19-15-15-19-15-15-19---------------------------------------------| |
|------------------------------------------------------------------| /




|------------------------------------------------------------------|
|------------------------------------------------------------------|
|------------------------------------------------------------------|
|-{pickslide}------------------------------------------------------|
|----------------10---10h12----------------------------------------|
|-------------00----0-------0-0-0-0-0-0-12h13p12-------------------|
              --    -       -   -   -

Sorry, all I got for now.
Tap to rate this tab
# A B C D E F G H I J K L M N O P Q R S T U V W X Y Z