Song name
# A B C D E F G H I J K L M N O P Q R S T U V W X Y Z

Miss Vintage - Trains tab

Hi i tried my best to find the tab but this is the best one so far???
Jason Played this song alot of times in my church and alot of places.

 Open String 
 Regular Tunning
 Capo 2 Fert Open String
 Half Cut
So heres some  of the intro:
Guitar:2
2 or 4X
e-------------------------------11-11-------|
B-------12-12--------------------------9h12-|
G--9-9---------9h11--------9-9--------------|
D-------------------------------------------|
A-------------------------------------------|
E-------------------------------------------|


Guitar:1 Jason
e------------------------------------------|
B------------------------------------------|
G-----9----8----9----8-----6----6----------|
D----9----9----9----9-----6----6-----------|
A---7----7----7----7-----4----4------------|
E------------------------------------------|



Verse:1  While Strumming
Guitar One:1 Jason
e---------------------------------------------------|
B---------------------------------------------------|
G-----6-----6---6-----9----9----8----9----8---------|
D----7----7----0-----9----9----9----9----9----------|
A---7----7----7-----7----7----7----7----7-----------|
E--5----5----5--------------------------------------|
Time is different for now...




Thats it D: sorry any comments email me at lee.danny@live.com
Tap to rate this tab
# A B C D E F G H I J K L M N O P Q R S T U V W X Y Z