Song name
# A B C D E F G H I J K L M N O P Q R S T U V W X Y Z

Missa Mercuria - Missa Mercuria tab

-------------------------------------------------------------------------------
			     Missa Mercuria - Missa Mercuria
                              http://www.missamercuria.com
-------------------------------------------------------------------------------

Tabbed by : David Shepherd
Email     : dave(AT)daveshep(DOTCOM)
Date      : 2006/11/17

First half of the solo which starts about 4:30. I'm currently working on the
second half and tweaking the tab for the fast run which may not be perfect.

This is my first attempt at tabbing.
Comments, sugestions and error reports are welcome.

Enjoy!



E|----------------------------------------------------------------------------|
B|-17~-17--17--17--18--20--20~------------------------------------------------|
G|----------------------------------------------------------------------------|
D|----------------------------------------------------------------------------|
A|----------------------------------------------------------------------------|
E|----------------------------------------------------------------------------|



E|----------------------------------------------------------------------------|
B|-18--17--15~-15--15--15--17--18--17b18r17b18r17-----------------------------|
G|----------------------------------------------------------------------------|
D|----------------------------------------------------------------------------|
A|----------------------------------------------------------------------------|
E|----------------------------------------------------------------------------|



E|------17--19--19b20r19b20r19b20--19b20--19--17--16~-17--19------------------|
B|-/17--------------------------------------------------------17~-------------|
G|----------------------------------------------------------------------------|
D|----------------------------------------------------------------------------|
A|----------------------------------------------------------------------------|
E|----------------------------------------------------------------------------|



E|----------------------------------------------------------------------------|
B|-17--20--19--20--17--20--19--20---------------------------------------------|
G|---------------------------------13--16--14--16--13--16--14--16-------------|
D|----------------------------------------------------------------------------|
A|----------------------------------------------------------------------------|
E|----------------------------------------------------------------------------|



E|----------------------------------------------------------------------------|
B|----------------------------------------------------------------------------|
G|----------------------------------------------------------------------------|
D|-12--15--14--15--12--15--14--15---------------------------------------------|
A|---------------------------------11--14--12--14--11--14--12--14-------------|
E|----------------------------------------------------------------------------|



E|----------------------------------------------------------------------------|
B|----------------------------------10--12--13--------------------------------|
G|------------9--10--12--9--10--12--------------------------------------------|
D|-9--10--12------------------------------------------------------------------|
A|----------------------------------------------------------------------------|
E|----------------------------------------------------------------------------|



E|-------------10--12--13--------------10h12p10--16b17r16--16--16~------------|
B|-10--12--13--------------10--12--13-----------------------------------------|
G|----------------------------------------------------------------------------|
D|----------------------------------------------------------------------------|
A|----------------------------------------------------------------------------|
E|----------------------------------------------------------------------------|



E|-----------------8--12--12~-8------10---------------------------------------|
B|-------------10----------------10------12--9--------------------------------|
G|----------9-----------------------------------9~----------------------------|
D|------10--------------------------------------------------------------------|
A|-/12------------------------------------------------------------------------|
E|----------------------------------------------------------------------------|



E|---------------7--10--10~-7-----8-------------------------------------------|
B|------------8----------------8-----10--7------------------------------------|
G|---------7--------------------------------7~--------------------------------|
D|------9---------------------------------------------------------------------|
A|-/10------------------------------------------------------------------------|
E|----------------------------------------------------------------------------|



E|--------------5--8--8~-5-----8----------------------------------------------|
B|-----------6--------------6-----8--5----------------------------------------|
G|--------5-----------------------------5--5h6p5h6p5h6------------------------|
D|-----7----------------------------------------------------------------------|
A|-/8-------------------------------------------------------------------------|
E|----------------------------------------------------------------------------|



E|----------------------------------------------------------------------------|
B|--------------4--7--7--4-----------5--4h5p4h5p4h5--/17--17--17~-------------|
G|-----------4--------------4-----4-------------------------------------------|
D|-----5--4--------------------4----------------------------------------------|
A|-/6-------------------------------------------------------------------------|
E|----------------------------------------------------------------------------|



| /  slide up
| \  slide down
| h  hammer-on
| p  pull-off
| ~  vibrato
| +  harmonic
| x  Mute note
Tap to rate this tab
# A B C D E F G H I J K L M N O P Q R S T U V W X Y Z