Song name
# A B C D E F G H I J K L M N O P Q R S T U V W X Y Z

Missing 23rd - Abused tab

8 Foot Sativa
The Abused
 
Intro & Interlude

Cut me some slack for this i just started playing
8 Foot Sativa Rocks

Gtr I (D A D G B E) - 'Untitled'

  Gtr I
 
 Intro Riff (0:00)
                    PM|
|------------------------------------------|
|------------------------------------------|
|------------------------------------------|
|------------7-6p5----------------6-5p4----|
|-5-5-5-8--5--------5-5--5-5-8--7----------|
|------------------------------------------|

 
  Interlude (1:34)

        ~        ~   ~        ~        ~   ~
|-----------------------------------------------|
|-----------------------------------------------|
|-----------------------------------------------|
|---5---7----5---7-8-7----5---7----5---7-8-7----|
|-5---5----5---5--------5---5----5---5----------|
|-----------------------------------------------|


        ~        ~   ~        ~        ~   ~
|-----------------------------------------------|
|-----------------------------------------------|
|-----------------------------------------------|
|---5---7----5---7-8-7----5---5----5---5-3-2----|
|-5---5----5---5--------5---5----5---5----------|
|-----------------------------------------------|


Tablature Legend
----------------
 ~   - vibrato
 

Generated using Power Tab Editor by Brad Larsen - http://powertab.guitarnetwork.org 
Tap to rate this tab
 
# A B C D E F G H I J K L M N O P Q R S T U V W X Y Z