Song name
# A B C D E F G H I J K L M N O P Q R S T U V W X Y Z

Missing In Action - One Pure Concept tab

                   ============================================

                        Missing in Action - One Pure Concept

                            " The Cost Of Sacrifice "

                                 Acoustic Intro

                   ============================================

e|---------------------------------------------------------------------------|
B|------------------0------------------0-------------------0----------------0|
G|------0-----0-----------0-----0------------0-----0------------0-----0------|
D|----5-----5-----------5-----5------------5-----5------------5-----5--------|
A|--7-----7------7----7-----7------7-----6-----6------6-----6-----6------6---|
E|---------------------------------------------------------------------------|


e|---------------------------------------------------------------------------|
B|--------------------0------------------0-----------------------------------|
G|------0------0------------0------0------------0-----0-----------0-----0----|
D|----4------4------------4------4------------2-----2------2----2-----2------|
A|--5------5-------5----5------5------5-----3-----3------3----4-----4-----4--|
E|---------------------------------------------------------------------------|




After second part go straight to the first part.

Do this X3 times.
There is an option to play it with chords:


Em , D# , D , C , Cm


Just have fun with the chords and i sure you will find somthing nice.

Ok i hope it helped you :)

Enjoy !
Tap to rate this tab
# A B C D E F G H I J K L M N O P Q R S T U V W X Y Z