Song name
# A B C D E F G H I J K L M N O P Q R S T U V W X Y Z

Missing Persons - Destination Unknown tab

( Intro )

|------=----------------|
|-------------------6---|
|----------4------------| (x6)
|-----4---=-------------|
|-----------------------|

( Riff )

|--------------------------|--------------------------------| 
|--------------------------|--------------------------------|
|--------------------------|--------------------------------|
|--------------------------|--------------------------------| (x12)
|---7-7-7-7---7 ~~ --------|-4-5-5-5---5--------------------|
|----------------------7---|--------------7 ~~ -------------|

(Chorus)

|--------------------------------|---------10--------------------|
|--------------------------------|---------10--------------------|
|--------------------------------|-----------------12------------|
|--------------------------------|-----------------12------------| (x4)
|-----------9/-------6-5-4-------|-------------------------------|
|-------7/-----7---------- -5----|-------------------------------| 

(Bridge­)

|-------------------------------------------------------------| 
|-------------------------------------------------------------|
|-------------------------------------------------------------| 
|-------------------------------------------------------------|
|-----4~~~~~46~~~~~67~~~~~7-----------------------------------|
|----------------------------6~~~~----------------------------|
Tap to rate this tab
# A B C D E F G H I J K L M N O P Q R S T U V W X Y Z