Guitaretab - guitar tabs
Song name
# A B C D E F G H I J K L M N O P Q R S T U V W X Y Z

Mission Of Burma - Max Ernst tab

Band: Mission of Burma
Song: Max Ernst
Album: Academy Fight Song/Max Ernst Single
(Bonus Track on Reissue of Signals, Calls, & Marches EP)
Year:1980

Guitar 1
e||------------------|----------------|
B||------------------|----------------|
G||*-----------------|----------------|
D||*-6-6-6-6-6-6-6-6-|6-6-6-6-6-6-6-6-|
A||------------------|----------------|
E||--4-4-4-4-4-4-4-4-|4-4-4-4-4-4-4-4-|

e|-----------------|-----------------||
B|-----------------|-----------------||
G|-----------------|----------------*||
D|-5-5-5-5-5-5-5-5-|5-5-5-5-5-5-5-5-*||
A|-3-3-3-3-3-3-3-3-|3-3-3-3-3-3-3-3--||
E|-----------------|-----------------||

People did not like that man Max Ernst. 
e|-----------------|----------------|
B|-----------------|----------------|
G|-----------------|----------------|
D|-6-6-6-6-6-6-6-6-|6-6-6-6-6-6-6-6-|
A|-----------------|----------------|
E|-4-4-4-4-4-4-4-4-|4-4-4-4-4-4-4-4-|

(The Blessed Virgin Chastises the Infant Jesus)
e|-----------------|----------------|
B|-----------------|----------------|
G|-----------------|----------------|
D|-5-5-5-5-5-5-5-5-|5-5-5-5-5-5-5-5-|
A|-3-3-3-3-3-3-3-3-|3-3-3-3-3-3-3-3-|
E|-----------------|----------------|

He was so irrational Max Ernst. 
e|-----------------|----------------|
B|-----------------|----------------|
G|-----------------|----------------|
D|-6-6-6-6-6-6-6-6-|6-6-6-6-6-6-6-6-|
A|-----------------|----------------|
E|-4-4-4-4-4-4-4-4-|4-4-4-4-4-4-4-4-|

(Garden Airplane-Trap, Garden Airplane-Trap)
e|-----------------|----------------|
B|-----------------|----------------|
G|-----------------|----------------|
D|-5-5-5-5-5-5-5-5-|5-5-5-5-5-5-5-5-|
A|-3-3-3-3-3-3-3-3-|3-3-3-3-3-3-3-3-|
E|-----------------|----------------|

e||----------------6-|----------9-7---||
B||----------------6-|-----------------||
G||*-----------------|----------------*||
D||*-7---7---6-------|-7--------------*||
A||--7---7---6-------|-7---------------||
E||--5---5---4-------|-5---------------||

The pleasures of the sight 
e|-----------------|----------------|
B|-----------------|----------------|
G|-----------------|4---------------|
D|-6---------------|4-------4-------|
A|-6---------------|2-------4-------|
E|-4---------------|--------2-------|

The pleasures of the flesh
e|-----------------|----------------|
B|-----------------|----------------|
G|-----------------|4---------------|
D|-6---------------|4-------4-------|
A|-6---------------|2-------4-------|
E|-4---------------|--------2-------|

The vanities of life
e|-----------------|----------------|
B|-----------------|----------------|
G|-----------------|----------------|
D|-6---------------|7----------4--3-|
A|-6---------------|7----------4--3-|
E|-4---------------|5----------2--1-|

He loved them all.
e|-----------------|----------------|
B|-----------------|----------------|
G|-----------------|4---4---4---4---|
D|-6---------------|4---4---4---4---|
A|-6---------------|2---2---2---2---|
E|-4---------------|----------------|

	X4
e||--------------9---|9---9---9---9----||
B||------------------|-----------------||
G||*-4-6-6-4-6-------|----------------*||
D||*-4-6-6-4-6-------|----------------*||
A||--2-4-4-2-4-------|-----------------||
E||------------------|-----------------||

In the pretty house they go away. 
e|-----------------|----------------|
B|-----------------|----------------|
G|-----------------|----------------|
D|-6-6-6-6-6-6-6-6-|6-6-6-6-6-6-6-6-|
A|-----------------|----------------|
E|-4-4-4-4-4-4-4-4-|4-4-4-4-4-4-4-4-|

(In the pretty house, In the pretty house) 
e|-----------------|----------------|
B|-----------------|----------------|
G|-----------------|----------------|
D|-5-5-5-5-5-5-5-5-|5-5-5-5-5-5-5-5-|
A|-3-3-3-3-3-3-3-3-|3-3-3-3-3-3-3-3-|
E|-----------------|----------------|

In that pretty house they do not stay. 
e|-----------------|----------------|
B|-----------------|----------------|
G|-----------------|----------------|
D|-6-6-6-6-6-6-6-6-|6-6-6-6-6-6-6-6-|
A|-----------------|----------------|
E|-4-4-4-4-4-4-4-4-|4-4-4-4-4-4-4-4-|

(Not in the pretty house, Not in the pretty house) 
e|-----------------|----------------|
B|-----------------|----------------|
G|-----------------|----------------|
D|-5-5-5-5-5-5-5-5-|5-5-5-5-5-5-5-5-|
A|-3-3-3-3-3-3-3-3-|3-3-3-3-3-3-3-3-|
E|-----------------|----------------|

e||----------------6-|----------9-7---||
B||----------------6-|-----------------||
G||*-----------------|----------------*||
D||*-7---7---6-------|-7--------------*||
A||--7---7---6-------|-7---------------||
E||--5---5---4-------|-5---------------||
[ Tab from: http://www.guitaretab.com/m/mission-of-burma/180196.html ]
In the burning sea 
e|-----------------|----------------|
B|-----------------|----------------|
G|-----------------|4---------------|
D|-6---------------|4-------4-------|
A|-6---------------|2-------4-------|
E|-4---------------|--------2-------|

In the laughing lights 
e|-----------------|----------------|
B|-----------------|----------------|
G|-----------------|4---------------|
D|-6---------------|4-------4-------|
A|-6---------------|2-------4-------|
E|-4---------------|--------2-------|

In the luminous sea 
e|-----------------|----------------|
B|-----------------|----------------|
G|-----------------|----------------|
D|-6---------------|7----------4--3-|
A|-6---------------|7----------4--3-|
E|-4---------------|5----------2--1-|

In the brash gold night 
e|-----------------|----------------|
B|-----------------|----------------|
G|-----------------|4---4---4---4---|
D|-6---------------|4---4---4---4---|
A|-6---------------|2---2---2---2---|
E|-4---------------|----------------|

X4
e||--------------9---|9---9---9---9----||
B||------------------|-----------------||
G||*-4-6-6-4-6-------|----------------*||
D||*-4-6-6-4-6-------|----------------*||
A||--2-4-4-2-4-------|-----------------||
E||------------------|-----------------||

e|-12--11--14-11--|12--11--14-11--|
B|-------------------|------------------|
G|-------------------|------------------|
D|-------------------|------------------|
A|-------------------|------------------|
E|-------------------|------------------|

e|-----------------|----------------|
B|-----------------|----------------|
G|-----------------|----------------|
D|-6-6-6-6-6-6-6-6-|6-6-6-6-6-6-6-6-|
A|-----------------|----------------|
E|-4-4-4-4-4-4-4-4-|4-4-4-4-4-4-4-4-|

e|-----------------|----------------|
B|-----------------|----------------|
G|-----------------|----------------|
D|-5-5-5-5-5-5-5-5-|5-5-5-5-5-5-5-5-|
A|-3-3-3-3-3-3-3-3-|3-3-3-3-3-3-3-3-|
E|-----------------|----------------|

In the turtle's head I blacked out fast.
e|-----------------|----------------|
B|-----------------|----------------|
G|-----------------|----------------|
D|-6-6-6-6-6-6-6-6-|6-6-6-6-6-6-6-6-|
A|-----------------|----------------|
E|-4-4-4-4-4-4-4-4-|4-4-4-4-4-4-4-4-|

e|-----------------|----------------|
B|-----------------|----------------|
G|-----------------|----------------|
D|-5-5-5-5-5-5-5-5-|5-5-5-5-5-5-5-5-|
A|-3-3-3-3-3-3-3-3-|3-3-3-3-3-3-3-3-|
E|-----------------|----------------|

In the city's halls always it laughed.
e|-----------------|----------------|
B|-----------------|----------------|
G|-----------------|----------------|
D|-6-6-6-6-6-6-6-6-|6-6-6-6-6-6-6-6-|
A|-----------------|----------------|
E|-4-4-4-4-4-4-4-4-|4-4-4-4-4-4-4-4-|

 HA HA HA HA HA HA HA HA
e|-----------------|----------------|
B|-----------------|----------------|
G|-----------------|----------------|
D|-5-5-5-5-5-5-5-5-|5-5-5-5-5-5-5-5-|
A|-3-3-3-3-3-3-3-3-|3-3-3-3-3-3-3-3-|
E|-----------------|----------------|

   Guitar 2
X4
e||-----------------|----------------||
B||-----------------|----------------||
G||*--------------(solo)------------*||
D||*----------------|---------------*||
A||-----------------|----------------||
E||-----------------|----------------||
 || Guitar 1
e||-----------------|----------------||
B||-----------------|----------------||
G||*-4-6-6-4-4-6-6-4|4-6-6-4-4-6-6-4*||
D||*-4-6-6-4-4-6-6-4|4-6-6-4-4-6-6-4*||
A||--2-4-4-2-2-4-4-2|2-4-4-2-2-4-4-2-||
E||-----------------|----------------||

Guitar 1
e|-9---9---9---9----|9---9---9---9----|
B|------------------|-----------------|
G|------------------|-----------------|
D|------------------|-----------------|
A|------------------|-----------------|
E|------------------|-----------------|

e|-9---9---9---9----|9---9---9---9----|
B|------------------|-----------------|
G|------------------|-----------------|
D|------------------|-----------------|
A|------------------|-----------------|
E|------------------|-----------------|
   


 Guitar 2
	Dada            Dada
X4
e||------------------|----------------|
B||------------------|----------------|
G||*-9---8---11-8---|9---8---11-8---|
D||*-----------------|----------------|
A||------------------|----------------|
E||------------------|----------------|
 || Guitar 1
e||------------------|----------------|
B||------------------|----------------|
G||*-----------------|----------------|
D||*-6-6-6-6-6-6-6-6-|6-6-6-6-6-6-6-6-|
A||------------------|----------------|
E||--4-4-4-4-4-4-4-4-|4-4-4-4-4-4-4-4-|

Dada                 Dada
e|-----------------|-----------------||
B|-----------------|-----------------||
G|-9---7---11-7---|9---7---11-7---*||
D|-----------------|----------------*||
A|-----------------|-----------------||
E|-----------------|-----------------||
 | 
e|-----------------|-----------------||
B|-----------------|-----------------||
G|-----------------|----------------*||
D|-5-5-5-5-5-5-5-5-|5-5-5-5-5-5-5-5-*||
A|-3-3-3-3-3-3-3-3-|3-3-3-3-3-3-3-3--||
E|-----------------|-----------------||


 



Related for Max Ernst tab