Song name
# A B C D E F G H I J K L M N O P Q R S T U V W X Y Z

Mission Of Burma - Max Ernst tab

Tabbed by Antaios
Email at geeter1321@yahoo.com

e|---------------------------------------------------------------------------|
B|------------------------------------------13-------------------------------|
G|--------2---2-4b-2-4b-6-8-10-12-14~-12-10----10-12-14p12p10h12p10----14p12-|
D|------3---3-------------------------------------------------------12-------|
A|-2~-4----------------------------------------------------------------------|
E|---------------------------------------------------------------------------|

e|----------------------------------------17p15p13-17p15p13----------16b-----|
B|-------------------------------------18-------------------15p14p12---------|
G|----------------------------14-16-18---------------------------------------|
D|-12-11-13p11h13p11-13/15-17------------------------------------------------|
A|---------------------------------------------------------------------------|
E|---------------------------------------------------------------------------|
Tap to rate this tab
# A B C D E F G H I J K L M N O P Q R S T U V W X Y Z