Song name
# A B C D E F G H I J K L M N O P Q R S T U V W X Y Z

Mission - Like A Child Again tab

-------------------------------------------------------------------------------
			     Like A Child Again (intro) - The Mission
-------------------------------------------------------------------------------
Tabbed by: SonOfNorth

Tuning:

e|----------------0---------------------------0-0----------------------------|
B|0-1-0-------0---1-----------0-1-0-------0---0-0----------------------------|
G|------2-0-2---0-0-----------------2-0-2---0-0-0----------------------------|
D|----------------2-0-2-0-2-------------------2-2-0-2-0-2--------------------|
A|----------------3---------------------------2-2-0-2-0-2--------------------|
E|----------------0---------------------------0-0----------------------------|
Tap to rate this tab
# A B C D E F G H I J K L M N O P Q R S T U V W X Y Z