Song name
# A B C D E F G H I J K L M N O P Q R S T U V W X Y Z

Mission - Naked And Savage tab

The Mission
Naked and Savage
The First Chapter
Transcribed by: Tom Quinn

Band website:
http://www.themissionuk.com/

This is in Dm natural/pentatonic (hexatonic).  I haven't figured out the chords but 
they're easy enough to guess.  The chorus includes Dm and F.  Feel free to e-mail me 
(M0L3CH@yahoo.com) with any corrections.
Enjoy ;)

Tuning: Standard (E A D G B e)

INTRO RIFF (slow strum)           Repeat
e|-----1p0-----------------------------||
B|----3--------------------------------||
G|---2---------------------------------||
D|--0----------------------------------||
A|-------------------------------------||
E|-------------------------------------||


MAIN RIFF                                                         Repeat
e|----------0-0-1-1---------0-0-1-1---------3-3-1p0--------------------||
B|------3-3-------------3-3-------------1-1-------------1-1-3/5-5-3~--o||
G|-(2)2------------(2)2------------(2)2------------(2)2----------------||
D|--0---------------0---------------0---------------0------------------||
A|--------------------------------------------------------------------o||
E|---------------------------------------------------------------------||


The lyrics are all online, and mostly correct.  Have fun.


Key:

h - Hammer-on
p - Pull-off
()- Ghost note
\ - Slide up
~ - Vibrato
Tap to rate this tab
# A B C D E F G H I J K L M N O P Q R S T U V W X Y Z