Song name
# A B C D E F G H I J K L M N O P Q R S T U V W X Y Z

Mission - Garden Of Delight tab

The Mission
Garden of Delight
The First Chapter
Transcribed by: Tom Quinn

Band website:
http://www.themissionuk.com/

I'm basing this on some live recordings and educated guesses.  I haven't worked out the
chords but it's more or less Dm Pentatonic with the occasional flat 1st (Dm Pentachord).
 The chorus goes back and forth from Dm to F.  Feel free to e-mail me (M0L3CH@yahoo.com) 
with any corrections.
Enjoy ;)

Tuning: Standard (E A D G B e)

MAIN RIFF                         Repeat
e|-------------------------------------||
B|------3-------3-------3-------3-----o||
G|----2---2---2---2-0h2---2---0---0----||
D|--0-------0---------------3----------||
A|------------------------------------o||
E|-------------------------------------||


ACCOMPANIMENT
e|--5~---------------------------------||
B|-----5~------------------------------||
G|--------3~---------------------------||
D|-------------------------------------||
A|-------------------------------------||
E|-------------------------------------||


VERSE RHYTHM                      This is my take on the rhythm part, not original
e|--------------------------------------------------------------||
B|-------------------------------------------------------------o||
G|--7--7-7-7----10--10-10-10----7--7-7-7-----10p9--9*~----9p7---||
D|--7--7-7-7----10--10-10-10----7--7-7-7---------7------7-------||
A|--5--5h7p5----8---8-h10p8-----5--5h7p5--(0)------------------o||
E|--------------------------------------------------------------||


CHORUS                            Not sure this is authentic, but it sounds good
e|--1~----1~----1~--(0~)---------------||
B|--3~----1~----3~--(3~)---------------||
G|--2~----2~----2~--(2~)---------------||
D|--0~----3~----0~--(0~)---------------||
A|-------------------------------------||
E|-------------------------------------||


The lyrics are all online, and mostly correct.  Have fun.


Key:

h - Hammer-on
p - Pull-off
()- Ghost note
* - Pinch harmonic
~ - Vibrato
Tap to rate this tab
# A B C D E F G H I J K L M N O P Q R S T U V W X Y Z