Song name
# A B C D E F G H I J K L M N O P Q R S T U V W X Y Z

Mississippi Fred Mcdowell - Highway 61 tab

This is more accurately what Mississippi Fred Mc Dowell is playing between the vocal 
but a guy on

Youtube (http://www.youtube.com/watch?v=mMWR6CGKtJY) was playing the lick I included in 
arrangement and

I liked it


D ||-----------0--------0--------0--------0-----------------0----|
A ||-----------2--------0--------2--------0-----------------0----|
F#||-------------------------------------------------------------|
D ||-----------------------------------0-------------------------|
A ||-------------------------------------------------------------|
D ||--0--------0--------0--------0--------0--------0-------------|


                                            Highway 61


                                                                          Mississippi 
Mc Dowell
(Capo 1)


D ||--------0--0-----0--------0--0-----0--|--------0--0--------0----1g3-----3--3------0--|
A ||--------2--2-----0--------2--2-----0--|--------2--2--------0----------------------0--|
F#||--------------------------------------|----------------------------------------------|
D ||--------------------------------------|----------------------------------------------|
A ||--------------------------------------|----------------------------------------------|
D ||--0--------0--------0--------0--------|--0--------0---------------0--------0---------|


--3s---2--0---------0----------0---2g3-----0---|--------------------------------------------|
-----------------------2g3---------------------|--3s---2--0---------------------------------|
-----------------------------------------------|-------------1p---0-------------------------|
-----------------------------------------------|---------------------0----------0--3--0--3--|
-----------------------------------------------|--------------------------------------------|
--0-----------0----------0-----------0---------|--0----------0------------0--------0--------|

--------------------------0--0-----0--|--------0--0-----0--------0--0-------0----|
--------------------------2--2-----0--|--------2--2-----0--------2--2-------0----|
--------------------------------------|------------------------------------------|
--0-----0--3-----0--------------------|------------------------------------------|
-----3--------------------------------|------------------------------------------|
--0-----------------0--------0--------|--0--------0--------0--------0------------|

--1g3-----3--3------0--3s---2--0---------0--|----------0---2g3-----0---------------------------|
--------------------0-----------------------|--2g3---------------------3s---2--0---------------|
--------------------------------------------|-------------------------------------1p--0--------|
--------------------------------------------|-----------------------------------------------0--|
--------------------------------------------|--------------------------------------------------|
----0--------0---------0-----------0--------|----0-----------0---------0----------0------------|

---------------------------------------|--------0--0-----0--------0--0-----0--|
---------------------------------------|--------2--2-----0--------2--2-----0--|
---------------------------------------|--------------------------------------|
--------0--3--0--3--0---------3-----0--|--------------------------------------|
-----------------------0h--3-----------|--------------------------------------|
--0--------0--------0------------------|--0--------0--------0--------0--------|

--------0---0------0--------------------------|-----------------0----------0-----------------|
--------2---2------0----3------3----3p-----0--|--------0-----------2g3-----------2g3p--0--3--|
----------------------------------------------|----------------------------------------------|
----------------------------------------------|----------------------------------------------|
----------------------------------------------|----------------------------------------------|
--0---------0-----------0-----------0---------|--0--------0----------0-------------0---------|

--------------------------------------------|---------------------||
--2g3-----0---------------------------------|---------------------||
---------------1p---0-----------------------|--------------------*||
-----------------------0--------0--3--0--3--|--0-----0--3-----0--*||
--------------------------------------------|-----3---------------||
----0----------0----------0--------0--------|--0------------------||
Tap to rate this tab
# A B C D E F G H I J K L M N O P Q R S T U V W X Y Z