Mississippi Fred Mcdowell - When I Lay My Burden Down tab

Although Mississippi Fred Mc Dowell and Fury Lewis (open G) both did a 
version of this song This isn't exactly either of those. Closer to
MFMD's as it is in open D.

This is a "hammer" and not a "pinch". Except * the pulls are "pinches"

|-----------|
|--0----2---|
|-----------|
|-------0---|
|-----------|
|--0--------|



|------------0----------|-----0-----------------|--4----2----0----------|
|--0----2------------0--|--2--------------------|--------------------0--|
|-----------------------|-----------------------|-----------------------|
|-------0---------0-----|--------0---------0----|-------0---------0-----|
|-----------------------|-----------------------|-----------------------|
|--0---------0----------|--0----------0---------|--0---------0----------|

   
-----0-----------------|--4----2----0---------|--0--------------------|
--2--------------------|----------------------|--------------------0--|
-----------------------|----------------------|-----------------------|
--------0---------0----|-------0---------0----|-------0---------0-----|
-----------------------|----------------------|-----------------------|
--0----------0---------|--0---------0---------|--0---------0----------|
               *
-----0-----------------|----------------------|--0----4----7---------|
--2----------2----0----|----------------------|----------------------|
-----------------------|----------------------|----------------------|
--------0---------0----|-------0---------0----|-------0---------0----|
-----------------------|----------------------|----------------------|
--0----------0---------|--0---------0---------|--0---------0---------|

                            *
--7-------------------|--9----7----4---------|--4-------------------|
----------------------|----------------------|----------------------|
----------------------|----------------------|----------------------|
-------0---------0----|-------0---------0----|-------0---------0----|
----------------------|----------------------|----------------------|
--0---------0---------|--0---------0---------|--0---------0---------|

     *                                            *
--9----7----4---------|-----------------4----|--2----0----0---------|
----------------------|----------------------|----------------------|
----------------------|----------------------|----------------------|
-------0---------0----|-------0---------0----|-------0---------0----|
----------------------|----------------------|----------------------|
--0---------0---------|--0---------0---------|--0---------0---------|


Glory glory, hallelujah, 
Since I lay (laid) my burden down. 
Glory glory, hallelujah, 
Since I lay (laid) my burden down. 

Every rung higher and higher 
When I lay my burden down. 
Every rung higher and higher
When I lay my burden down. 

No more troubles over yonder, 
When I lay my burden down. 
No more troubles over yonder
When I lay my burden down. 

Lord, I'm feeling so much better, 
Since I lay (laid) my burden down. 
Lord, I'm feeling so much better, 
Since I lay (laid) my burden down. 
Tap to rate this tab
 
# A B C D E F G H I J K L M N O P Q R S T U V W X Y Z