Song name
# A B C D E F G H I J K L M N O P Q R S T U V W X Y Z

Mississippi John Hurt - Stocktime tab

----------------------------------------------------------------------------
		    Stocktime - Mississippi John Hurt
----------------------------------------------------------------------------

Tabbed by: Dave S. 
Email: prime-prine@hotmail.com

Tuning: Standard
                                                                       


E||--0---------3---------|----------------------|--0-----0--3-----3-------|
B||----------------------|----------------------|-----3-------------------|
G||----------------------|--2---------0---------|-------------------------|
D||-------2---------2----|-------3---------2----|--------2-----------2----|
A||--3---------3---------|------------3---------|--3-----------3----------|
E||----------------------|--1-------------------|-------------------------|

    
--2---------3---------|--0-----0--3-----3-------|----------------------|
----------------------|-----3-------------------|----------------------|
----------------------|-------------------------|--2---------0---------|
-------0---------0----|--------2-----------2----|-------3---------2----|
--0-------------------|--3-----------3----------|------------3---------|
------------3---------|-------------------------|--1-------------------|

     
--0--3--------0--3--------|--0-------------------|--0-----0--3-----3-------|
-----------1-----------0--|-------3----1---------|-----3-------------------|
--------------------------|----------------------|-------------------------|
--------2-----------2-----|-------0---------2----|--------2-----------2----|
--3-----------3-----------|------------3---------|--3-----------3----------|
--------------------------|--3-------------------|-------------------------|

     
----------------------|--0-----0--3-----3-------|--2---------3---------|
----------------------|-----3-------------------|----------------------|
--2---------0---------|-------------------------|----------------------|
-------3---------2----|--------2-----------2----|-------0---------0----|
------------3---------|--3-----------3----------|--0-------------------|
--1-------------------|-------------------------|------------3---------|

     
--0-----0--3-----3-------|----------------------|----------------------|
-----3-------------------|----------------------|--0h1-------0h1-------|
-------------------------|--2---------0---------|-----------------0----|
--------2-----------2----|-------3---------2----|-------2--------------|
--3-----------3----------|------------3---------|--3---------3---------|
-------------------------|--1-------------------|----------------------|

   
-------1----0---------|----------------------|-------1----0---------|
----------------------|--0h1-------0h1-------|----------------------|
----------------------|-----------------0----|----------------------|
--2--------------2----|-------2--------------|--2--------------2----|
------------3---------|--3---------3---------|------------3---------|
-------3--------------|----------------------|-------3--------------|

                                            
----------------------|-------1----0--------||
--0h1-------0h1-------|------------1--------||
-----------------0----|------------0--------||
-------2--------------|--2---------2--------||
--3---------3---------|------------3--------||
----------------------|-------3----3--------||

| /  slide up
| \  slide down
| h  hammer-on
| p  pull-off
| ~  vibrato
| +  harmonic
| x  Mute note
===========================================================================
Tap to rate this tab
 
# A B C D E F G H I J K L M N O P Q R S T U V W X Y Z