Song name
# A B C D E F G H I J K L M N O P Q R S T U V W X Y Z

Mississippi John Hurt - Trouble Ive Had All My Days tab

----------------------------------------------------------------------------
	    Trouble I've Had All My Days - Mississippi John Hurt
----------------------------------------------------------------------------


Tabbed by: Dave S. 
Email: prime-prine@hotmail.com

Tuning: Standard



   
E||----------5-----5---------|----------5-----5----------|
B||-----5/7-----7------------|-----5/7-----7----------3--|
G||--------------------------|---------------------------|
D||----------0----------0----|----------0----------0-----|
A||--0-------------0---------|--0-------------0----------|
E||--------------------------|---------------------------|

    
-------------------5----|---------5-----------5-----|----------------------|
------------5/7---------|--5/7---------5/7-------0--|-------3--------------|
------------------------|---------------------------|----------------------|
-------0-----------0----|---------0-----------0-----|-------0---------0----|
--0-----------0---------|----0-----------0----------|----------------------|
------------------------|---------------------------|--3---------3---------|

  
------------------------|-------2--------------|-------2-------2--------|
--0----3----------------|-------3--------------|--3----3-------3--------|
------------------------|----------------------|---------------------2--|
-------0----------------|--0-------------------|--0---------0-----------|
-----------------2/4----|-----------------0----|-------0----------0-----|
--3---------3-----------|------------2---------|------------------------|

    
-------5--------5--------|--5---------3---------|-------2--------------|
----------2-----------2--|----------------------|-------3--------------|
--2----------------------|----------------------|----------------------|
-------------2-----------|--2---------2---------|--0-------------------|
-------0-----------0-----|-------0---------4----|-----------------0----|
-------------------------|----------------------|------------2---------|



-------2--------------|----------5-----5---------|----------5-----5---------|
-------3--------------|-----5/7-----7------------|-----5/7-----7----------3-|
----------------------|--------------------------|--------------------------|
--0--------------0----|----------0----------0----|----------0----------0----|
------------0---------|--0-------------0---------|--0-------------0---------|
----------------------|--------------------------|--------------------------|

    
-------------------5----|---------5-----------5-----|----------------------|
------------5/7---------|--5/7---------5/7-------0--|-------3--------------|
------------------------|---------------------------|----------------------|
-------0-----------0----|---------0-----------0-----|-------0---------0----|
--0-----------0---------|----0-----------0----------|----------------------|
------------------------|---------------------------|--3---------3---------|

  
------------------------|-------2--------------|-------2-------2--------|
--0----3----------------|-------3--------------|--3----3-------3--------|
------------------------|----------------------|---------------------2--|
-------0----------------|--0-------------------|--0---------0-----------|
-----------------2/4----|-----------------0----|-------0----------0-----|
--3---------3-----------|------------2---------|------------------------|

    
-------5--------5--------|--5---------3---------|-------2--------------|
----------2-----------2--|----------------------|-------3--------------|
--2----------------------|----------------------|----------------------|
-------------2-----------|--2---------2---------|--0-------------------|
-------0-----------0-----|-------0---------4----|-----------------0----|
-------------------------|----------------------|------------2---------|

     
-------2--------------|----------5-----5---------|----------5-----5---------|
-------3--------------|-----5/7-----7------------|-----5/7-----7------------|
----------------------|--------------------------|--------------------------|
--0--------------0----|----------0----------0----|----------0----------0----|
------------0---------|--0-------------0---------|--0-------------0---------|
----------------------|--------------------------|--------------------------|

    
--------------------5-----|--5-----5-----5-----0-----|----------------------|
---------------5/7-----7--|-----7-----7-----7-----0--|-------3--------------|
--------------------------|--------------------------|----------------------|
-------0------------0-----|--------0-----------0-----|-------0---------0----|
--0---------0-------------|--0-----------0-----------|----------------------|
--------------------------|--------------------------|--3---------3---------|

    
-----------------------|-------2--2-----0--------|--2--------2------------|
--0----3------------0--|-------3--3-----------3--|-----3------------------|
-----------------------|-------------------------|------------------------|
-------0---------0-----|-------0-----------0-----|--------0----------0----|
-----------------------|--0----------0-----------|--0-----------0---------|
--3---------3----------|-------------------------|------------------------|

    
-------5--------5--------|--5----------3---------|-------2--------------|
----------2-----------2--|----------2------------|-------3--------------|
-------------------------|-----------------------|----------------------|
-------2-----------2-----|-------2---------------|--0-------------------|
--0----------0-----------|--0----------0----4----|-----------------0----|
-------------------------|-----------------------|------------2---------|

               
-------2--2-----------|--2----------------||
-------3--3-----------|--3----------------||
----------------------|--2----------------||
--0----------0--------|-------------------||
-------0--------------|-------------------||
----------------------|-------------------||

| /  slide up
| \  slide down
| h  hammer-on
| p  pull-off
| ~  vibrato
| +  harmonic
| x  Mute note
===========================================================================
Tap to rate this tab
# A B C D E F G H I J K L M N O P Q R S T U V W X Y Z