Song name
# A B C D E F G H I J K L M N O P Q R S T U V W X Y Z

Mississippi John Hurt - Oh Mary Dont You Weep tab

----------------------------------------------------------------------------
	    Oh Mary Don't You Weep - Mississippi John Hurt
----------------------------------------------------------------------------


Tabbed by: Dave S. 
Email: prime-prine@hotmail.com

Tuning: Standard


   
E||--2/4--4-----5-----4-------|--2-------2------------|
B||---------------------------|-----------------------|
G||----------4-----------4----|-------2----------2----|
D||---------------------------|-----------------------|
A||---------------------------|--2----------2---------|
E||----0-----------0----------|-----------------------|

    
--2--4-----4--------4-----|--2----0--0-------4----|--0-----0--2-----0-------|
-----------------0-----0--|-----------------------|-----2--------------2----|
--------4-----------4-----|--2---------------4----|-------------------------|
--------------------------|-------------2---------|--------2-----------2----|
--2-----------------------|-----------------------|--0-----------0----------|
--------------0-----------|-------0----------0----|-------------------------|

    
-----------0------------|-----------2/4-------2-----|--0-------0------------|
--0-----0---------------|--0-----0---------------0--|-----------------------|
-----1------------------|-----2---------------2-----|-----------------------|
--------2----------2----|---------------------------|-------2----------2----|
------------------------|--2------------------------|-----------------------|
--0-----------0---------|--------2-------0----------|--0----------0---------|

   
--2/4--4-----5-----4--------|--2-------2------------|
-------------------------0--|-----------------------|
----------4-----------4-----|-------2----------2----|
----------------------------|-----------------------|
----------------------------|--2----------2---------|
----0-----------0-----------|-----------------------|


--2/4--4-----4-------4-----|--2----0--0-------4----|--0-----0--2-----0------|
------------------------0--|-----------------------|-----2--------------2---|
----------4----------4-----|--2---------------4----|------------------------|
---------------------------|-------------2---------|--------2-----------2---|
---------------------------|-----------------------|--0-----------0---------|
----0-----------0----------|-------0----------0----|------------------------|

    
-----------4------------|-----------2g4--------2-----|--0-------0-----------|
--0-----0---------------|--0-----0----------0-----0--|----------------------|
-----1------------------|-----2----------------2-----|----------------------|
--------2----------2----|----------------------------|-------2----------2---|
------------------------|--2-------------------------|----------------------|
--0-----------0---------|--------2-------0-----------|--0----------0--------|

  
--2/4--4-----5-----4-------|--2-------2------------|-2--4-----4--------4----|
---------------------------|-----------------------|----------------0-----0-|
----------4-----------4----|-------2----------2----|-------4-----------4----|
---------------------------|-----------------------|------------------------|
---------------------------|--2----------2---------|-2----------------------|
----0-----------0----------|-----------------------|--------------0---------|

    
--2----0--0-------4----|--0-----0--2-----0-------|-----------0------------|
-----------------------|-----2--------------2----|--0-----0---------------|
--2---------------4----|-------------------------|-----1------------------|
-------------2---------|--------2-----------2----|--------2----------2----|
-----------------------|--0-----------0----------|------------------------|
-------0----------0----|-------------------------|--0-----------0---------|

   
-----------2/4-------2-----|--0-------0------------|
--0-----0---------------0--|-----------------------|
-----2---------------2-----|-----------------------|
---------------------------|-------2----------2----|
--2------------------------|-----------------------|
--------2-------0----------|--0----------0---------|

    
--2/4--4-----5-----4--------|--2-------2------------|
-------------------------0--|-----------------------|
----------4-----------4-----|-------2----------2----|
----------------------------|-----------------------|
----------------------------|--2----------2---------|
----0-----------0-----------|-----------------------|

     
--2/4--4-----4-------4-----|--2----0--0-------4----|--0-----0--2-----0------|
------------------------0--|-----------------------|-----2--------------2---|
----------4----------4-----|--2---------------4----|------------------------|
---------------------------|-------------2---------|--------2-----------2---|
---------------------------|-----------------------|--0-----------0---------|
----0-----------0----------|-------0----------0----|------------------------|

                                                                         
-----------4------------|-----------2/4--------2-----|--0---------0--------|
--0-----0---------------|--0-----0----------0-----0--|------------0--------|
-----1------------------|-----2----------------2-----|------------1--------|
--------2----------2----|----------------------------|-------2----2--------|
------------------------|--2-------------------------|------------2--------|
--0-----------0---------|--------2-------0-----------|--0---------0--------|

| /  slide up
| \  slide down
| h  hammer-on
| p  pull-off
| ~  vibrato
| +  harmonic
| x  Mute note
===========================================================================
Tap to rate this tab
 
# A B C D E F G H I J K L M N O P Q R S T U V W X Y Z