Guitaretab - guitar tabs
Song name
# A B C D E F G H I J K L M N O P Q R S T U V W X Y Z

Mississippi John Hurt - Coffee Blues tab

----------------------------------------------------------------------------
		 Coffee Blues - Mississippi John Hurt
----------------------------------------------------------------------------


Tabbed by: Dave S. 
Email: prime-prine@hotmail.com

Tuning: Standard



   
E|-------5-------3-------|--1//2---------------|-------0h2-----0h2-----|
B|-----------------------|--------3------------|--------------------3--|
G|-----------------------|---------------------|-----------------------|
D|-------2----------2----|-----0----------0----|-------0---------0-----|
A|--0---------0----------|--0--------0---------|--0---------0----------|
E|-----------------------|---------------------|-----------------------|

  
--0----------------------|-------5--------3-------|--0---------0---------|
-------1/2---------------|----------2-------------|----------------------|
------------2------------|------------------------|----------------------|
-------1/2----------2----|-------2-----------2----|-------2---------2----|
--0------------0---------|--0----------0----------|----------------------|
-------------------------|------------------------|--0---------0---------|

   
-------------0---------|---------------------|-------5-------3-------|
----------0-------3----|--1//2---------------|-----------------------|
-----0h1---------------|--------2------------|-----------------------|
-------2----------2----|-----2----------2----|-------2----------2----|
-----------------------|--0--------0---------|--0---------0----------|
--0----------0---------|---------------------|-----------------------|

[ Tab from: http://www.guitaretab.com/m/mississippi-john-hurt/199783.html ]
  
--1//2---------------|-------0h2-----0h2-----|--0--------------------|
--------3------------|--------------------3--|-------1/2-------------|
---------------------|-----------------------|------------2----------|
-----0----------0----|-------0---------0-----|-------1/2----------2--|
--0--------0---------|--0---------0----------|--0------------0-------|
---------------------|-----------------------|-----------------------|

    
-------5--------3-------|--0---------0---------|-------------0---------|
----------2-------------|----------------------|----------0-------3----|
------------------------|----------------------|-----0h1---------------|
-------2-----------2----|-------2---------2----|-------2----------2----|
--0----------0----------|----------------------|-----------------------|
------------------------|--0---------0---------|--0----------0---------|

    
---------------------|-------5-------3-------|--1//2---------------|
--1//2---------------|-----------------------|--------3------------|
--------2------------|-----------------------|---------------------|
-----2----------2----|-------2----------2----|-----0----------0----|
--0--------0---------|--0---------0----------|--0--------0---------|
---------------------|-----------------------|---------------------|

   
-------0h--2-----0h--2-----|--0----------------------|-------5--------3-----|
------------------------3--|-------1g2---------------|----------2-----------|
---------------------------|------------2------------|----------------------|
-------0-------------0-----|-------1g2----------2----|-------2-----------2--|
--0-----------0------------|--0------------0---------|--0----------0--------|
---------------------------|-------------------------|----------------------|

       
--0---------0---------|---------------0---------|-----------------------||
----------------------|------------0-------3----|--1s----2--2-----------||
----------------------|-----0h--1---------------|-----------2-----------||
-------2---------2----|---------2----------2----|--------2--2-----------||
----------------------|-------------------------|--0--------0-----------||
--0---------0---------|--0------------0---------|-----------------------||

| /  slide up
| \  slide down
| h  hammer-on
| p  pull-off
| ~  vibrato
| +  harmonic
| x  Mute note
===========================================================================



Related for Coffee Blues tab
Coffee Blues chords by Mississippi John Hurt