Mississippi John Hurt - Im Satisfied tab

---------------------------------------------------------------------------
		I'm Satisfied - Mississippi John Hurt
---------------------------------------------------------------------------
Tabbed by: maguri
Tuning: Standard

Mississippi John Hurt
I'm Satisfied
(Mississippi John Hurt)

From: "Today" (1966)

A nice little tune. John Hurt has a special way of playing, a mix between 
strumming the bass strings (with his thumb) and picking the melody on the 
top strings (mostly index, sometimes middle finger, too).
I'm still not able do that, so for my tab here I transcribed it as a folk 
picking. Enjoy!

I made a recording of the song. Check it out here:
http://profile.ultimate-guitar.com/maguri/music/all/play980382

---------------------------------------------------------------------------

INTRO
  C
e|----------------|--------0-------|
B|----------------|----------3-----|
G|----0-------0---|----0-----------|
D|----2-------2---|----2-------2---|
A|3---------------|3---------------|
E|--------3-------|--------3-------|
 
  F                2/4      C
e|--------------0-|--------|----------------|----------------|
B|1-------1h3-----|----3---|1---1-----------|1-----3---1-----|
G|----------------|--------|--------0---0---|----------------|
D|----3-------3---|----3---|----2-------2---|----2-------2---|
A|----------------|--------|3---------------|3-------3-------|
E|1-------1-------|1-------|--------3-------|----------------|
  G                                                  C
e|----------------|----------------|--3---1---3-----|0-----0---------|
B|----------------|----------------|----------------|----------------|
G|3h4---0---------|3h4---0---------|--------------0-|----------0-----|
D|----0-------0---|----0-------0---|----0-------0---|----2-------2---|
A|----------------|----------------|----------------|3---------------|
E|3-------3-------|3-------3-------|3-------3-------|--------3-------|

 [C]       F                2/4      C
e|0-------|--------------0-|--------|----------------|----------------|
B|----3---|1-------1h3-----|----3---|1---1-----------|1-----3---1-----|
G|--------|----------------|--------|--------0---0---|----------------|
D|----2---|----3-------3---|----3---|----2-------2---|----2-------2---|
A|3-------|----------------|--------|3---------------|3-------3-------|
E|--------|1-------1-------|1-------|--------3-------|----------------|
  G                                                  C       G
e|----------------|----------------|--0h1---0-------|----------------|
B|----------------|----------------|----------3---1-|------1-------1-|
G|3h4---0---------|3h4---0---------|------0---------|----------0h2---|
D|----0-------0---|----0-------0---|----0-------0---|----2-------0---|
A|----------------|----------------|----------------|3---------------|
E|3-------3-------|3-------3-------|3-------3-------|--------3-------|

  C
e|--------0-------|
B|----------3-----|
G|----0-----------|
D|----2-------2---|
A|3---------------|
E|--------3-------|

VERSE

 [C]       F                2/4      C
e|--------------0-|--------|----------------|----------------|
B|1-------1h3-----|----3---|1---1-----------|1-----3---1-----|
G|----------------|--------|--------0---0---|----------------|
D|----3-------3---|----3---|----2-------2---|----2-------2---|
A|----------------|--------|3---------------|3-------3-------|
E|1-------1-------|1-------|--------3-------|----------------|
  G                                                  C
e|----------------|----------------|--3---1---3-----|0-----0---------|
B|----------------|----------------|----------------|----------------|
G|3h4---0---------|3h4---0---------|--------------0-|----------0-----|
D|----0-------0---|----0-------0---|----0-------0---|----2-------2---|
A|----------------|----------------|----------------|3---------------|
E|3-------3-------|3-------3-------|3-------3-------|--------3-------|

 [C]       F                2/4      C
e|0-------|--------------0-|--------|----------------|----------------|
B|----3---|1-------1h3-----|----3---|1---1-----------|1-----3---1-----|
G|--------|----------------|--------|--------0---0---|----------------|
D|----2---|----3-------3---|----3---|----2-------2---|----2-------2---|
A|3-------|----------------|--------|3---------------|3-------3-------|
E|--------|1-------1-------|1-------|--------3-------|----------------|
  G                                                  C       G
e|----------------|----------------|--1-----0-------|----------------|
B|----------------|----------------|----------3---1-|------1-------1-|
G|3h4---0---------|3h4---0---------|------0---------|----------0h2---|
D|----0-------0---|----0-------0---|----0-------0---|----2-------0---|
A|----------------|----------------|----------------|3---------------|
E|3-------3-------|3-------3-------|3-------3-------|--------3-------|

  C
e|--------0-------|
B|------------3---|
G|----0-----------|
D|----2-------2---|
A|3---------------|
E|--------3-------|


VARIATION (for INTRO/INSTRUMENTAL VERSE)
  F                2/4      C
e|--------------0-|--------|----------------|----------------|
B|1-------1h3-----|----3---|1---1-----------|1-----3---1-----|
G|----------------|--------|--------0---0---|----------------|
D|----3-------3---|----3---|----2-------2---|----2-------2---|
A|----------------|--------|3---------------|3-------3-------|
E|1-------1-------|1-------|--------3-------|----------------|
  G                                                  C
e|----------------|----------------|--3-----3---3/5-|0---------0-----|
B|----------------|----------------|----------------|----------------|
G|3h4---0---------|3h4---0---------|------0---------|------0-------0-|
D|----0-------0---|----0-------0---|----0-------0---|----2-------2---|
A|----------------|----------------|----------------|3-------3-------|
E|3-------3-------|3-------3-------|3-------3-------|----------------|


---------------------------------------------------------------------------

INTRO

         F                  C
I'm satisfied, tickled too, old enough to marry you
    G                              C
I'm satisfied it's gonna bring you back
         F                  C
I'm satisfied, tickled too, old enough to marry you
    G                              C
I'm satisfied it's gonna bring you back

INSTRUMENTAL VERSE

             F                  
First in the country, then in town,
      C
I'm a total shaker from my navel on down
    G                              C
I'm satisfied it's gonna bring you back
         F                  C
I'm satisfied, tickled too, old enough to marry you
    G                              C
I'm satisfied it's gonna bring you back

          F                    C
I pull my dress to my knees, I give my total all to who I please
    G                              C
I'm satisfied it's gonna bring you back
         F                  C
I'm satisfied, tickled too, old enough to marry you
    G                              C
I'm satisfied it's gonna bring you back


INSTRUMENTAL VERSE

         F                  C
I'm satisfied, tickled too, old enough to marry you
    G                              C
I'm satisfied it's gonna bring you back
         F                  C
I'm satisfied, tickled too, old enough to marry you
    G                              C
I'm satisfied it's gonna bring you back


INSTRUMENTAL VERSE
Tap to rate this tab
 
# A B C D E F G H I J K L M N O P Q R S T U V W X Y Z