Song name
# A B C D E F G H I J K L M N O P Q R S T U V W X Y Z

Mississippi John Hurt - Shake That Thing tab

Tabbed by Dan (raxptor@gmail.com)

If this isn't "the real deal" it is at least very very close. Please
send any comments/corrections or thanks to the email address above.

This is the way he plays it in the later recordings (which is different from the early versions)


I'll leave figuring out how to repeat it to you :)


 |       |       |       |        |       |       |       |        
|--------------------------------|--------------------------------|
|----------------0-------0---3---|----------------0-------0---3---|
|--------------------3-----------|--------------------3-----------|
|--------0---------------0-------|--------0---------------0-------|
|--------------------------------|--------------------------------|
|3---------------3---------------|3---------------3---------------|
 
 |       |       |       |        |       |       |       |        
|--------------------------------|----1-----------1-------0-------|
|----------------0-------0---3---|------------3-------3-------3---|
|--------------------3-----------|--------------------------------|
|--------0---------------0-------|--------0---------------0-------|
|--------------------------------|--------------------------------|
|3---------------3---------------|3---------------3---------------|
 
 |       |       |       |        |       |       |       |        
|----0---1-------0---------------|--------------------------------|
|------------3-----------0-------|--------------------------------|
|--------------------3-------0---|--------------------0-------0---|
|--------0---------------0-------|--------0---------------0-------|
|--------------------------------|----------------2---------------|
|3---------------3---------------|3-------------------------------|
 
 |       |       |       |        |       |       |       |        
|--------------------------------|--------------------------------|
|----0-----------0---------------|--------------------------------|
|------------3-------0-------0---|--------------------0-------0---|
|--------0---------------2-------|--------0---------------0-------|
|--------------------------------|----------------2---------------|
|3---------------3---------------|3-------------------------------|
 
 |       |       |       |        |       |       |       |        
|----------------1-------1-------|--------0-------3-------0-------|
|--------------------------------|3-------------------------------|
|--------------------------------|--------------------------------|
|--------0---------------0-------|--------0---------------0-------|
|--------------------------------|--------------------------------|
|3---------------3---------------|3---------------3---------------|
 
 |       |       |       |        |       |       |       |        
|--------------------3-----------|3-------3---3-------------------|
|3-------0-------------------0---|--------------------------------|
|----0-3-----0-------------------|--------------------------------|
|--------0---------------0-------|--------2---------------0-------|
|--------------------------------|--------------------------------|
|3---------------3---------------|3---------------3---------------|
 
Please send me comments! raxptor@gmail.com
Tap to rate this tab
# A B C D E F G H I J K L M N O P Q R S T U V W X Y Z