Song name
# A B C D E F G H I J K L M N O P Q R S T U V W X Y Z

Mistaken For The Cia - Years Gone By tab

-----------------------------------------------------------------------
			     Years Gone By - Mistaken for the cia
-----------------------------------------------------------------------

Tuning: Drop d

Intro (clean then distorted)
e|------------------------|
B|------------------------|
G|-7-7-7776-6-6-6667------|
D|-7-7-7777-7-7-7777------|
A|-5-5-5555-5-5-5555------|
D|------------------------|

Verse
e|--------------------------------------|
B|--------------------------------------|
G|-7-xx-77-7-77-7777--------------------|
D|-7-xx-77-7-77-7777-5-xx-55-5-55-5555--|
A|-5-xx-55-5-55-5555-5-xx-55-5-55-5555--|
D|-------------------5-xx-55-5-55-5555--|

Pre chorus
e|-------------------------------------------------------|
B|-------------------------------------------------------|
G|------------------4-4-4444-44-4444---------------------|
D|-4-4-4444-44-4444-4-4-4444-44-4444-4-4-4444-44-4444\7--|
A|-4-4-4444-44-4444-2-2-2222-22-2222-4-4-4444-44-4444\7--|
D|-4-4-4444-44-4444------------------4-4-4444-44-4444\7--|

Chorus
e|------------------------------------|
B|------------------------------------|
G|-7-7-7777-77-7777-------------------|
D|-7-7-7777-77-7777-7-7-7777-77-7777--|
A|-5-5-5555-55-5555-7-7-7777-77-7777--|
D|------------------7-7-7777-77-7777--|

Bridge
e|----------------------------------|
B|----------------------------------|
G|-7-7-777--------------------------|
D|-7-7-777-7-7-777-4-4-444-5-5-555--|
A|-5-5-555-7-7-777-4-4-444-5-5-555--|
D|---------7-7-777-4-4-444-5-5-555--|

Order
Intro x8
Verse x2
Pre chorus
Chorus x2
Intro x8
Verse x2
Pre chorus
Chorus x2
Intro x8
Bridge x4
Intro x4
Chorus x2
Tap to rate this tab
 
# A B C D E F G H I J K L M N O P Q R S T U V W X Y Z