Guitaretab - guitar tabs
Song name
# A B C D E F G H I J K L M N O P Q R S T U V W X Y Z

Mistaken For The Cia - Swiss Miss tab

---------------------------------------------------------------------
			     Swiss Miss - Mistaken for the CIA
---------------------------------------------------------------------

Tuning: Drop D

Intro
I was... 
e|--------------------------------------------------|
B|--------------------------------------------------|
G|----5^---7^---9^---7--7--5-----7-----9-----7------|
D|----5^---7^---9^---7--7--5-x16-7-x16-9-x16-7-x16--|
A|----3^---5^---7^---5--5--3-----5-----7-----5------|
D|--------------------------------------------------|

e|---------------------------------|
B|---------------------------------|
G|-----6----6-----6-----777766-----|
D|------7-77-77-77-77-77------7----|
A|---------------------------------|
D|---------------------------------|
[ Tab from: http://www.guitaretab.com/m/mistaken-for-the-cia/58081.html ]
Verse
e|------------------------------------------|
B|------------------------------------------|
G|--5---7---5---7---5---7---5---7---9---7---|
D|--5---7---5---7---5---7---5---7---9---7---|
A|--3---5---3---5---3---5---3---5---7---5---|
D|------------------------------------------|

Chorus
e|-------------------------------|
B|-------------------------------|
G|--2--6--7--9--2--6--7-9^--2---|
D|--2--6--7--9--2--6--7-9^--2---|
A|--0--4--5--7--0--4--5-7^--0---|
D|-------------------------------|

e|---------------------------------------|
B|---------------------------------------|
G|-------7-------7--------9-------9------|
D|--5-55-5-55-55-5-5-7-77-7-77-77-7-7----|
A|--3-33-3-33-33-3-3-5-55-5-55-55-5-5----|
D|---------------------------------------|

e|------------------------------------------------------------------|
B|------------------------------------------------------------------|
G|------------------------------------------------------------------|
D|--222-222-222-222-666-666-666-666-777-777-777-777-999-999-999-999-|
A|--000-000-000-000-444-444-444-444-555-555-555-555-777-777-777-777-|
D|------------------------------------------------------------------|
    ..  ..  ..  ..  ..  ..  ..  ..  ..  ..  ..  ..  ..  ..  ..  ..
Related for Swiss Miss tab