Song name
# A B C D E F G H I J K L M N O P Q R S T U V W X Y Z

Mister Heavenly - Bronx Sniper tab

-------------------------------------------------------------------------------
                             Bronx Sniper - Mister Heavenly
-------------------------------------------------------------------------------

Tabbed by:Steveyrem (a DRUMMER,we do more than hit things)
Email:stevesfinesthour@yahoo.co.uk

Tuning: Standard
-------------------------------------------------------------------------------

This is what i worked out for the guitar of Bronx Sniper by Mister Heavenly 
from their album Out of Love. This is my first tab so i appologise for any mistakes. 
Email me any changes or if you can work out the damn ending :L 

-------------------------------------------------------------------------------
Intro

D           F              G
Later on, in the epilogue, without me
D           F              G
 Right now, the whole town is frightened
D           F              G
 In the Bronx, when the guns go off we like it
D (let ring)
 We like it
 

Pre Verse Part x4

e|-------------------------------------------------------------------------|
B|--8-8/6------------------------------------------------------------------|
G|--7-7/5----------10-10-------12-12---------------------------------------|
D|-----------------8--8--------10-10---------------------------------------|
A|-----------------8--8--------10-10---------------------------------------|
E|-------------------------------------------------------------------------|

Verse x4

e|-------------------------------------------------------------------------|
B|-------------------------------------------------------------------------|
G|-----7-7-7-7---10-10--12-12----------------------------------------------|
D|-----7-7-7-7---10-10--12-12----------------------------------------------|
A|-----5-5-5-5---8--8---10-10----------------------------------------------|
E|-------------------------------------------------------------------------|

Chorus x 3

e|-------------------------------------------------------------------------|
B|-------------------------------------------------------------------------|
G|----------------------9--------------------------------------------------|
D|--12-12-12-12/10--8-x-9--7-x-10------------------------------------------|
A|--12-12-12-10/10--8-x-7--7-x-10------------------------------------------|
E|--10-10-10-10/8---6-x----5-x-8-------------------------------------------|
e|-------------------------------------------------------------------------|
B|-------------------------------------------------------------------------|
G|----------------------9------10------------------------------------------|
D|--12-12-12-12/10--8-x-9--7-x-10------------------------------------------|
A|--12-12-12-10/10--8-x-7--7-x-8-------------------------------------------|
E|--10-10-10-10/8---6-x----5-x---------------------------------------------|

Bridge x2

e|----------------------------------|
B|-6-6-6-6-6-6-6p5-6p5--------------|
G|----------------------------------|
D|----------------------------------| x4
A|----------------------------------|
E|----------------------------------|
Then
e|-------------------------------------------------------------------------|
B|-------------------------------------------------------------------------|
G|-------------------------------------------------------------------------|
D|--7--7--7--7--7---7--7--10-----------------------------------------------|
A|--7-----7-----7------7--10-----------------------------------------------|
E|--5-----5-----5------5--8------------------------------------------------|


Verse x4

e|-------------------------------------------------------------------------|
B|-------------------------------------------------------------------------|
G|-----7-7-7-7---10-10--12-12----------------------------------------------|
D|-----7-7-7-7---10-10--12-12----------------------------------------------|
A|-----5-5-5-5---8--8---10-10----------------------------------------------|
E|-------------------------------------------------------------------------|


Chorus x 3

e|-------------------------------------------------------------------------|
B|-------------------------------------------------------------------------|
G|----------------------9--------------------------------------------------|
D|--12-12-12-12/10--8-x-9--7-x-10------------------------------------------|
A|--12-12-12-10/10--8-x-7--7-x-10------------------------------------------|
E|--10-10-10-10/8---6-x----5-x-8-------------------------------------------|
e|-------------------------------------------------------------------------|
B|-------------------------------------------------------------------------|
G|----------------------9------10------------------------------------------|
D|--12-12-12-12/10--8-x-9--7-x-10------------------------------------------|
A|--12-12-12-10/10--8-x-7--7-x-8-------------------------------------------|
E|--10-10-10-10/8---6-x----5-x---------------------------------------------|

Lead guitar plays this and sustains on the 2nd strum of the rhythm guitar
e|-------------------------------------------------------------------------|
B|-------------------------------------------------------------------------|
G|----12-------------------------------------------------------------------|
D|-------------------------------------------------------------------------|
A|-------------------------------------------------------------------------|
E|-------------------------------------------------------------------------|

After play this sequence through again once
e|-------------------------------------------------------------------------|
B|-------------------------------------------------------------------------|
G|----------------------9--------------------------------------------------|
D|--12-12-12-12/10--8-x-9--7-x-10------------------------------------------|
A|--12-12-12-10/10--8-x-7--7-x-10------------------------------------------|
E|--10-10-10-10/8---6-x----5-x-8-------------------------------------------|

Outro 

During the outro they play this then seem to go insane over the top with 
synth (i think) but they seem to have this playing underneath and finish 
with the 12th fret on the D string. 

e|----------------------------------|
B|-6-6-6-6-6-6-6p5-6p5--------------|
G|----------------------------------|
D|----------------------------------|
A|----------------------------------|
E|----------------------------------|

************************************

| /   slide up
| \   slide down
| h   hammer-on
| p   pull-off
| ~   vibrato
| +   harmonic
| x   Mute note
| b   Bend
| pb  Pre-bend
| br  Bend release
| pbr Pre-bend release
| brb Bend release bend

************************************
Tap to rate this tab
 
# A B C D E F G H I J K L M N O P Q R S T U V W X Y Z