Song name
# A B C D E F G H I J K L M N O P Q R S T U V W X Y Z

Mister Monster - Bigger Shop Of Horrors tab

Hey dudes,
My first tab so there may be a few errors.
The song is in drop D.
Tabbed by: dedweirdo

Verse:
|------------------------------------|
|------------------------------------|
|------------------------------------|
|-7-7-6-6-2-2-1-1-1-7-7-6-6-2-2-1-1-1|
|-7-7-6-6-2-2-1-1-1-7-7-6-6----------|
|-7-7-6-6-2-2-1-1-1-7-7-6-6----------|

"well my bigger shop of horrors":
|------------------------------------|
|------------------------------------|
|------------------------------------|
|-7-7-7-6-6-6-2-2-2-1-1-1------------|
|-7-7-7-6-6-6-2-2-2-1-1-1------------|
|-7-7-7-6-6-6-2-2-2-1-1-1------------|

chorus:
|------------------------------------|
|------------------------------------|
|-4-4-4-4----------------------------|
|-4-4-4-4-4-4-4-4-66--66--66--66--66-|
|-2-2-2-2-4-4-4-4-66--66--66--66--66-|
|---------4-4-4-4-66--66--66--66--66-|

Chorus variation (2:39):

|--------------------------------------------|
|--------------------------------------------|
|-4-4-4-4---------6-6-6-6--------------------|
|-4-4-4-4-4-4-4-4-6-6-6-6-66--66--66--66--66-|
|-2-2-2-2-4-4-4-4-4-4-4-4-66--66--66--66--66-|
|---------4-4-4-4---------66--66--66--66--66-|


Rhythm should be fairly easy like the whole song.
Feel free to comment and correct.
Ded. (Dedweirdo@googlemail.com)
Tap to rate this tab
# A B C D E F G H I J K L M N O P Q R S T U V W X Y Z