Song name
# A B C D E F G H I J K L M N O P Q R S T U V W X Y Z

Mistress - Lord Worm tab

Help us improve GuitareTab! Take a short survey!
---------------------------------------------------------------------- 
 Song name:lord worm     band name:mistress
----------------------------------------------------------------------

By:Matthew ogorman aka Corpse Grinder


intro
 
e|-------------------------------------------------------------------
B|-------------------------------------------------------------------
G|-------------------------------------------------------------------
D|-------------------------------------------------------------------
A|-----3--4-----------3--4-------------------------------------------
E|-0-2-------4--2--0-------4--2--0-----------------------------------

e|--------------------------------------------------------------------
B|--------------------------------------------------------------------
G|--------------------------------------------------------------------
D|-1----1-1---3----3-3---0----0-0---5----5-5----1----1--1---0---0-0---
A|-1----1-1---3----3-3---0----0-0---5----5-5----1----1--1---0---0-0---
E|-1----1-1---3----3-3---0----0-0---5----5-5----1----1--1---0---0-0---

verse

e|--------------------------------------------------------------------
B|--------------------------------------------------------------------
G|--------------------------------------------------------------------
D|-1-xx-1-xx-1-x-1-xx-1------3-----4-4-4---5----6-6-6-----------------
A|-1-xx-1-xx-1-x-1-xx-1------3-----4-4-4---5----6-6-6-----------------
E|-1-xx-1-xx-1-x-1-xx-1------3-----4-4-4---5----6-6-6-----------------

Chorus

e|--------------------------------------------------------------------
B|--------------------------------------------------------------------
G|--------------------------------------------------------------------
D|----------------------------1---------5----4---5---3---0---5--1-----
A|-----------4--5----3-----------2-----4-----4---5---3---0---5--1-----
E|--1---0-----------------2--1------3--------4---5---3---0---5--1-----

solo

e|--------------------------------------------------------------------
B|--------------------------------------------------------------------
G|--------------------------------------------------------------------
D|--------------------------------------------------------------------
A|--------------------------------------------------------------------
E|-9999999-888888888-66666666-88888888-9999999-88888888-101010101010--

The End. It is a hard song to play just liston to the cd. See YA!!!!!!
Related for Lord Worm tab