Song name
# A B C D E F G H I J K L M N O P Q R S T U V W X Y Z

Misty Edwards - My Soul Longs For You tab

e|-------------------------------------------------------------------------|
B|-------------------------------------------------------------------------|
G|---2-2-2-0---------2-2-2-0-----------------------------------------------|
D|-0---------4-----0---------4-------2-2-2-0----------2-2-2-0--------------|
A|---------------------------------0---------4------0---------4------------|
E|-------------------------------------------------------------------------|


e|-------------------------------------------------------------------------|
B|-------------------------------------------------------------------------|
G|---2-2-2-0---------2-2-2-0-----------------------------------------------|
D|-0---------4-----0---------4-------2-2-2-0----------2-2-2-0--------------|
A|---------------------------------0---------4------0---------4------------|
E|-------------------------------------------------------------------------|

e|-------------------------------------------------------------------------|
B|-------------------------------------------------------------------------|
G|---2-2-2-0---------2-2-2-0-----------------------------------------------|
D|-0---------4-----0---------4-------2-2-2-0----------2-2-2-0--------------|
A|---------------------------------0---------4------0---------4------------|
E|-------------------------------------------------------------------------|

e|-------------------------------------------------------------------------|
B|-------------------------------------------------------------------------|
G|---2-2-2-0---------2-2-2-0-----------------------------------------------|
D|-0---------4-----0---------4-------2-2-2-0----------2-2-2-0--------------|
A|---------------------------------0---------4------0---------4------------|
E|-------------------------------------------------------------------------|
Tap to rate this tab
# A B C D E F G H I J K L M N O P Q R S T U V W X Y Z