Misty Edwards - Always On His Mind tab

---------------------------------------------------------------------------
	       	    ALWAYS ON HIS MIND - Misty Edwards
---------------------------------------------------------------------------
Tabbed by: GiGi
Email: lawizeg@aol.com

Tuning: Standard

Intro/Verse 1

The shapes are: Gm - F/A - Bb - F

e|--------------------------------------------------------------------------|
B|---------------1--3-------------------------------------------------------|
G|------3--------2--3------------2-----------2------------------------------|
D|----5---5------3--1----------3---3-------3---3----------------------------|
A|--------------------------(3)---------(3)---------------------------------|
E|-3-----------------------1-----------1------------------------------------|
Tap to rate this tab
 
# A B C D E F G H I J K L M N O P Q R S T U V W X Y Z