Song name
# A B C D E F G H I J K L M N O P Q R S T U V W X Y Z

Mitchel Musso - Lets Make This Last Forever chords

Highlighted       Show chord diagrams
here's a vid of me playing it http://www.youtube.com/watch?v=cDo7UMBHz4s


intro/verse

e|------------------|
B|------------------|
G|-------------7-7--|
D|-7-7-9-9-5-5-7-7--| x 2
A|-7-7-9-9-5-5-5-5--|
E|-5-5-7-7-3-3------|

pre chorus
e|------------------------|
B|------------------------|
G|-9-9-9-9--11-11-11-11-/-|
D|-9-9-9-9--11-11-11-11-/-|
A|-7-7-7-7--9--9--9--9--/-|
E|------------------------|
"all i need is a piano in my track now"

Chorus
e|---------------------------------------------------------------------|
B|---------------------------------------------------------------------|
G|-4-4-4-4-4-4-4-4-------------------7-7-7-7-7-7-7-7-------------------| x 4
D|-4-4-4-4-4-4-4-4--5-5-5-5-5-5-5-5--7-7-7-7-7-7-7-7--7-7-7-7-7-7-7-7--|
A|-2-2-2-2-2-2-2-2--5-5-5-5-5-5-5-5--5-5-5-5-5-5-5-5--7-7-7-7-7-7-7-7--|
E|------------------3-3-3-3-3-3-3-3-------------------5-5-5-5-5-5-5-5--|
"throw your hands up..."

e|----------------------------------------------------|
B|----------------------------------------------------|
G|----------------------------------------------------|
D|-2-2-2-2-2-2-2-2--5-5-5-5-5-5-5-5--7-7-7-7-7-7-7-7--|
A|-2-2-2-2-2-2-2-2--5-5-5-5-5-5-5-5--7-7-7-7-7-7-7-7--|
E|-0-0-0-0-0-0-0-0--3-3-3-3-3-3-3-3--5-5-5-5-5-5-5-5--|
"so lets make this last forever"

intro/verse x2 (playing chords for a total of 4 times)

prechorus

chorus x 2

bridge:
e|------------------------------------------------------------------------------------------|
B|------------------------------------------------------------------------------------------|
G|-11-11-11-11-11-11-11-11--12-12-12-12-12-12-12-12-11-11-11-11-11-11-11-11-9-9-9-9-9-9-9-9-|
D|-11-11-11-11-11-11-11-11--12-12-12-12-12-12-12-12-11-11-11-11-11-11-11-11-9-9-9-9-9-9-9-9-|
A|--9--9--9--9--9--9--9--9--10-10-10-10-10-10-10-10-9--9--9--9--9--9--9--9--7-7-7-7-7-7-7-7-|
E|------------------------------------------------------------------------------------------|

e|--------------------------------------------------------------------------|
B|--------------------------------------------------------------------------|
G|-11-11-11-11-11-11-11-11--12-12-12-12-12-12-12-12-14-14-14-14-14-14-14-14-|
D|-11-11-11-11-11-11-11-11--12-12-12-12-12-12-12-12-14-14-14-14-14-14-14-14-|
A|--9--9--9--9--9--9--9--9--10-10-10-10-10-10-10-10-12-12-12-12-12-12-12-12-|
E|--------------------------------------------------------------------------|

chorus
e|---------------------------------------------------------------------------|
B|---------------------------------------------------------------------------|
G|--4-----------------------7-7-7-7-7-7-7-7----------------------------------|
D|--4-(letring)-5-----------7-7-7-7-7-7-7-7--7-7-7-7-7-7-7-7-----------------|
A|--2-----------5-(letring)-5-5-5-5-5-5-5-5--7-7-7-7-7-7-7-7-----------------|
E|--------------3----------------------------5-5-5-5-5-5-5-5-----------------|

play chorus normally x2

outro: play intro

-----aznguitarist123

comment.
| /  slide up
| \  slide down
| h  hammer-on
| p  pull-off
| ~  vibrato
| +  harmonic
| x  Mute note
Tap to rate this tab
# A B C D E F G H I J K L M N O P Q R S T U V W X Y Z